Song name
# A B C D E F G H I J K L M N O P Q R S T U V W X Y Z

Misc Unsigned Bands - Pioneer - No Respect tab

-------------------------------------------------------------------------------
			    No Respect - Pioneer
-------------------------------------------------------------------------------
Tabbed by:
Email:

Tuning:Drop D

RIFF1
e|---------------------------------------------------------------------------|
B|---------------------------------------------------------------------------|
G|---------------------------------------------------------------------------|
D|----6----6585----0----------6----6585-6585-6585----0-----------------------|
A|----6----6585----0----------6----6585-6585-6585----0-----------------------|
D|----6----6585----0----X3----6----6585-6585-6585----0-----------------------|

RIFF2
e|---------------------------------------------------------------------------|
B|---------------------------------------------------------------------------|
G|---------------------------------------------------------------------------|
D|----66----666----66----666-------------------------------------------------|
A|----55----555----55----555-------------------------------------------------|
D|---------------------------------------------------------------------------|

RIFF3
e|---------------------------------------------------------------------------|
B|---------------------------------------------------------------------------|
G|---------------------------------------------------------------------------|
D|----7777777777777777----666650----666650-----------------------------------|
A|----5555555555555555----666650----666650-----------------------------------|
D|------------------------666650----666650----X4-----------------------------|

RIFF4
e|---------------------------------------------------------------------------|
B|---------------------------------------------------------------------------|
G|---------------------------------------------------------------------------|
D|-------5-7-0-5\3----008-008------5-7-0-5\3----006-006----------------------|
A|-----------------5--008-008----------------5--006-006----------------------|
D|-----0--------------008-008----0--------------006-006----------------------|

e|---------------------------------------------------------------------------|
B|---------------------------------------------------------------------------|
G|---------------------------------------------------7-----------------------|
D|-------5-7-0-5\3---005-005------5-7-0-5\3----xxxx--0-----------------------|
A|-----------------5-005-005----------------5--xxxx--5-----------------------|
D|-----0-------------005-005----0--------------xxxx--------------------------|

RIFF 5
e|---------------------------------------------------------------------------|
B|---------------------------------------------------------------------------|
G|------------------------------------------------4-4-4-4--------------------|
D|----00000000----11-11-11-11---------22222222----3-3-3-3--------------------|
A|----00000000----10-10-10-10---------22222222-------------------------------|
D|----00000000----10-10-10-10---X4----22222222---------------X4--------------|

RIFF6
e|---------------------------------------------------------------------------|
B|---------------------------------------------------------------------------|
G|---------------------------------------------------------------------------|
D|----0-5-7-0-5\3-0--008-008----0-5-7-0-5\3-0-006-006------------------------|
A|----0-5-7-0-5\3-0--008-008----0-5-7-0-5\3-0-006-006------------------------|
D|----0-5-7-0-5\3-0--008-008----0-5-7-0-5\3-0-006-006------------------------|

e|---------------------------------------------------------------------------|
B|---------------------------------------------------------------------------|
G|------------------------------------------------7--------------------------|
D|----0-5-7-0-5\3-0-005-005----0-5-7-0-5\3-0-xxxx-0--------------------------|
A|----0-5-7-0-5\3-0-005-005----0-5-7-0-5\3-0-xxxx-5--------------------------|
D|----0-5-7-0-5\3-0-005-005----0-5-7-0-5\3-0-xxxx----------------------------|

Song Order/
RIFF 1
Riff 2
Riff 3
Riff 2
Riff 4
Riff 3
Riff 2
Riff 4
Riff 5
Riff 6

(Hope that makes sense?)
************************************

| /   slide up
| \   slide down
| h   hammer-on
| p   pull-off
| ~   vibrato
| +   harmonic
| x   Mute note
| b   Bend
| pb  Pre-bend
| br  Bend release
| pbr Pre-bend release
| brb Bend release bend

************************************
Tap to rate this tab
# A B C D E F G H I J K L M N O P Q R S T U V W X Y Z