Song name
# A B C D E F G H I J K L M N O P Q R S T U V W X Y Z

Misc Unsigned Bands - Pioneer - Babe tab

-------------------------------------------------------------------------------
			     Babe - Pioneer
-------------------------------------------------------------------------------
Tabbed by:
Email:

Tuning:DROP D

RIFF1
e|--------------------------------------------0-------------------------------|
B|--------------------------------------------3-------------------------------|
G|----2--------2--------2--------2------------2-------------------------------|
D|----2-3-2-0--2-3-2-0--2-3-2-0--2-6----------0-------------------------------|
A|----0-3-2-0--0-3-2-0--0-3-2-0--0-6----------0-------------------------------|
D|------3-2-0----3-2-0----3-2-0----6----X4----0-------------------------------|

RIFF2
e|---------------------------------------------------------------------------|
B|---------------------------------------------------------------------------|
G|---------------------------------------------------------------------------|
D|----12121212-10101010-7779-------------------------------------------------|
A|----10101010-8-8-8-8--7779----X9-------------------------------------------|
D|---------------------------------------------------------------------------|

RIFF3
e|---------------------------------------------------------------------------|
B|---------------------------------------------------------------------------|
G|---------------------------------------------------------------------------|
D|----5555-3333-2220---------------------------------------------------------|
A|----5555-3333-2220---------------------------------------------------------|
D|----5555-3333-2220---------------------------------------------------------|

RIFF4
e|---------------------------------------------------------------------------|
B|---------------------------------------------------------------------------|
G|---------------------------------------------------------------------------|
D|---------------------------------------------------------------------------|
A|---------------------------------------------------------------------------|
D|----11-xxx-111-xxxx--X10---------------------------------------------------|



SONG ORDER.
RIFF 1
Riff 2
Riff 3
Riff 4


************************************

| /   slide up
| \   slide down
| h   hammer-on
| p   pull-off
| ~   vibrato
| +   harmonic
| x   Mute note
| b   Bend
| pb  Pre-bend
| br  Bend release
| pbr Pre-bend release
| brb Bend release bend

************************************
Tap to rate this tab
 
# A B C D E F G H I J K L M N O P Q R S T U V W X Y Z