Song name
# A B C D E F G H I J K L M N O P Q R S T U V W X Y Z

Misc Unsigned Bands - Pioneer - Shadows tab

-------------------------------------------------------------------------------
			     Shadows - Pioneer
-------------------------------------------------------------------------------
Tabbed by:
Email:

Tuning:Drop C

INTRO.
d|---------------------------------------------------------------------------|
a|---------------------------------------------------------------------------|
F|----666-6------------------------------------------------------------------|
C|----444-0------------------------------------------------------------------|
G|----444-0------------------------------------------------------------------|
C|----444-0----X6------------------------------------------------------------|

VERSE.
d|------------6--------------------------------------------------------------|
A|------------6--------------------------------------------------------------|
F|------------6--------------------------------------------------------------|
C|----4-0-3h4---0-2/3-0------------------------------------------------------|
G|----4-0-3h4---0-2/3-0------------------------------------------------------|
C|----4-0-3h4---0-2/3-0----X4------------------------------------------------|

CHORUS.
d|---------------------------------------------------------------------------|
A|---------------------------------------------------------------------------|
F|----6-666------------------------------------------------------------------|
C|----4-444-0----222222222222222---------------------------------------------|
G|----4-444-0----222222222222222---------------------------------------------|
C|----4-444-0----222222222222222----X4---------------------------------------|

BREAKDOWN
d|---------------------------------------------------------------------------|
A|---------------------------------------------------------------------------|
F|----6-666------999999999999999---------------------------------------------|
C|----4-444-0----999999999999999---------------------------------------------|
G|----4-444-0----777777777777777---------------------------------------------|
C|----4-444-0-----------------------X4---------------------------------------|

d|---------------------------------------------------------------------------|
A|---------------------------------------------------------------------------|
F|-----------------------6-6666-6--------------------------------------------|
C|--------6--------------4-4444-0----------222222222222222-------------------|
G|------5----------------4-4444-0----------222222222222222-------------------|
C|----0-----0-6-0-5-0----4-4444-0----X4----222222222222222-------------------|


SONG ORDER:

Intro
Verse
Chorus
Verse
Chorus
Breakdown
Chorus


************************************

| /   slide up
| \   slide down
| h   hammer-on
| p   pull-off
| ~   vibrato
| +   harmonic
| x   Mute note
| b   Bend
| pb  Pre-bend
| br  Bend release
| pbr Pre-bend release
| brb Bend release bend

************************************
Tap to rate this tab
# A B C D E F G H I J K L M N O P Q R S T U V W X Y Z