Song name
# A B C D E F G H I J K L M N O P Q R S T U V W X Y Z

Misc Unsigned Bands - Jerrys Kids - Is This My World tab

Intro
E--------------------------------------------------------|
B--------------------------------------------------------|
G--7--------------9---9---7---7--------------------------|
D--7----7----9----9---9---7---7----7----9-9-9-9-9-9-9-9--|
A--5----7----9----7---7---5---5----7----9-9-9-9-9-9-9-9--|
E-------5----7---------------------5----7-7-7-7-7-7-7-7--|

Verse Riff
E------------------------------|
B------------------------------|
G--7-7-7-7----7--9-9-9-9-7--9--|
D--7-7-7-7-7--7--9-9-9-9-7--9--|
A--5-5-5-5-7--5--7-7-7-7-5--7--|
E----------5-------------------|

Pre-Chorus
E------------------------------|
B------------------------------|
G----------7--5----------------|
D--5-5-5-5-7--5--7-7-7-7-5--7--|
A--5-5-5-5-5--3--7-7-7-7-5--7--|
E--3-3-3-3-------5-5-5-5-3--5--|

Chorus
E-----------------------------------|
B-----------------------------------|
G------------------5-5-5-5-5-5-5-5--|
D--2-2-2-2-5-5-5-5-5-5-5-5-5-5-5-5--|
A--2-2-2-2-5-5-5-5-3-3-3-3-3-3-3-3--|
E--0-0-0-0-3-3-3-3------------------|

Final Chorus
E-------------------------------------------------------------------|
B-------------------------------------------------------------------|
G----------------------------------5-5-5-5-5-5-5-5-5-5-5-5-5-5-5-5--|
D--2-2-2-2-2-2-2-2-5-5-5-5-5-5-5-5-5-5-5-5-5-5-5-5-5-5-5-5-5-5-5-5--|
A--2-2-2-2-2-2-2-2-5-5-5-5-5-5-5-5-3-3-3-3-3-3-3-3-3-3-3-3-3-3-3-3--|
E--0-0-0-0-0-0-0-0-3-3-3-3-3-3-3-3----------------------------------|

Intro
Verse Riff   x6
Pre-Chorus   x2
Chorus       x4
Verse Riff   x4
Pre-Chorus   x2
Chorus       x4
Verse Riff   x8
Pre-Chorus   x2
Final Chorus x8 (Fade Out)
Tap to rate this tab
# A B C D E F G H I J K L M N O P Q R S T U V W X Y Z