Song name
# A B C D E F G H I J K L M N O P Q R S T U V W X Y Z

Misc Unsigned Bands - Taylor George - Basic Guitar Exercise No 1 tab

----------------------------------------------------------------------------
		   Basic Guitar Exercise No. 1 - Taylor George
----------------------------------------------------------------------------
Tabbed by: Taylor George
Email: johntgeorge37@hotmail.com

After many youtube requests I have tabbed out my first exercise I play when I begin my
practice.    If you want to see me play this exercise go to youtube and search
http://youtu.be/sfthw7GOTQU  There are a total of 70 exercise that I run through - that 
is the first 7 to 10 minutes of my practice. I included the fingering.  The exercise is 
not hard but
that is not the goal - the goal is to utilize all fingering patterns of three or more. 
Good luck

Tuning: Standard

e|-------------------------------------------------------------------------|
B|-------------------------------------------------------------10-11-12-13-|
G|-------------------------------------------------10-11-12-13-------------|
D|-------------------------14-13-12-11-13-12-11-10-------------------------|
A|-------------10-11-12-13-------------------------------------------------|
E|-10-11-12-13-------------------------------------------------------------|
Fingering
   1  2  3  4              4  3  2  1  4  3  2  1

e|-14-13-12-11-13-12-11-10-------------------------------------------------|
B|-------------------------13-12-11-10-------------------------------------|
G|-------------------------------------13-12-11-10-------------------------|
D|-------------------------------------------------13-12-11-10-------------|
A|-------------------------------------------------------------13-12-11-10-|
E|-------------------------------------------------------------------------|

e|-----------------------------------------------------9-10-11-10-9--------|
B|---------------------------------------------9-10-11--------------11-10-9|
G|-------------------------------------9-10-11-----------------------------|
D|-----------------------------9-10-11-------------------------------------|
A|---------------------9-10-11---------------------------------------------|
E|-13-12-11-10-9-10-11-----------------------------------------------------|

Fingering      1 2  3

e|-------------------------------------------------------------------------|
B|-------------------------------------------------------------------------|
G|-11-10-9----------------------------------------------------10-11-12-----|
D|---------11-10-9-----------------------------------10-11-12--------------|
A|-----------------11-10-9------------------10-11-12-----------------------|
E|-------------------------11-10-9-10-11-12--------------------------------|

Fingering                          2  3  4

e|----------10-11-12-11-10-------------------------------------------------|
B|-10-11-12----------------12-11-10----------------------------------------|
G|----------------------------------12-11-10-------------------------------|
D|-------------------------------------------12-11-10----------------------|
A|----------------------------------------------------12-11-10-------------|
E|-------------------------------------------------------------12-11-10----|

e|-----------------------------------------9-10-12-10-9--------------------|
B|---------------------------------9-10-12--------------12-10-9------------|
G|-------------------------9-10-12------------------------------12-10-9----|
D|-----------------9-10-12-------------------------------------------------|
A|---------9-10-12---------------------------------------------------------|
E|-9-10-12-----------------------------------------------------------------|
Fingering
   1 2  4

e|---------------------------------------------------------------9-11-12---|
B|-------------------------------------------------------9-11-12-----------|
G|-----------------------------------------------9-11-12-------------------|
D|-12-10-9-------------------------------9-11-12---------------------------|
A|---------12-10-9---------------9-11-12-----------------------------------|
E|-----------------12-10-9-11-12-------------------------------------------|

Fingering                1 3 4

e|-11-9--------------------------------------------------------------------|
B|------12-11-9------------------------------------------------------------|
G|--------------12-11-9----------------------------------------------------|
D|----------------------12-11-9------------------------------------7-8-9-10|
A|------------------------------12-11-9------------------8-9-10-11---------|
E|--------------------------------------12-11-9-10-11-12-------------------|

Fingering                                     1 2  3  4

e|-----------------5-6-7-8-9-8-7-6-----------------------------------------|
B|---------6-7-8-9-----------------10-9-8-7--------------------------------|
G|-6-7-8-9----------------------------------10-9-8-7-----------------------|
D|---------------------------------------------------11-10-9-8-------------|
A|-------------------------------------------------------------12-11-10-9--|
E|-------------------------------------------------------------------------|

e|-----------------------------------------------------------5-6-7-8-------|
B|---------------------------------------------------6-7-8-9---------------|
G|-------------------------------------------6-7-8-9-----------------------|
D|----------------------------------7-8-9-10-------------------------------|
A|------------------------8-9-10-11----------------------------------------|
E|-13-12-11-10-9-10-11-12--------------------------------------------------|

e|-9-8-7-6-----------------------------------------------------------------|
B|---------10-9-8-7--------------------------------------------------------|
G|------------------10-9-8-7-----------------------------------------------|
D|---------------------------11-10-9-8-------------------------------------|
A|-------------------------------------12-11-10-9--------------------------|
E|------------------------------------------------13-12-11-10-9------------|
Tap to rate this tab
# A B C D E F G H I J K L M N O P Q R S T U V W X Y Z