Song name
# A B C D E F G H I J K L M N O P Q R S T U V W X Y Z

Misc Unsigned Bands - Traversay - Mirror 7 tab

TRAVERSAY - Mirror 7

Riff 1 A
e|------------------------------|
h|---------11--------11------11-|
G|---7---7---7-----7---7---7----|
D|-----7-------7-8-------8------|
A|-0----------------------------|
D|------------------------------|

Riff 1 B
e|------------------------------------------------------------|
h|---------11--------12------12----------11--------9-------9--|
G|---7---7---7-----7---7---7-------7---7---7-----7---7---7----|
D|-----7-------7-8-------8-----------7-------7-8-------8------|
A|-0-----------------------------0----------------------------|
D|------------------------------------------------------------|

Riff 2
e|-----------------------------|
h|-----------------------------|
G|-----------------------------|
D|-----------------------------|
A|-----------------------------|
D|-0-0-0-3-3-3-5-2-2-2-1-1-1-5-|


Intro: 	   Riff 1 A
Verse 1:   Riff 1 A
Chorus:	   Riff 2
Interlude: Riff 1 A
Chorus:	   Riff 2
Verse 2:   Riff 1 B
Outro:     Riff 1 A
Tap to rate this tab
 
# A B C D E F G H I J K L M N O P Q R S T U V W X Y Z