Song name
# A B C D E F G H I J K L M N O P Q R S T U V W X Y Z

Misc Unsigned Bands - Brads One Man Band - Be With You tab

BRADS ONE MAN BAND
'BE WITH YOU'
ALL ALONE
http://communities.msn.com/BradsOneManBand


VERSE:
E-----------------
B-----------------
G--6--------------
D--6--6--4--8--6--
A--4--6--4--8--6--
E-----4--2--6--4--

CHORUS:
E--------------------------------------
B--------------------------------------
G--------6--------6--------6-----------
D--4--6--6--4--6--6--4--6--6--6--4--6--
A--4--6--4--4--6--4--4--6--4--6--4--6--
E--2--4-----2--4-----2--4-----4--2--4--

BRIDGE:
E--------9-11-13-11-9--
B----------------------
G----------------------
D--4--6----------------
A--4--6----------------
E--2--4----------------

SOLO:
E---------------------
B---------------------
G--6--6--8--6--10--8--
D--6--x--x--x--x---x--
A--4--6--6--4--8---6--
E-----4--4--2--6---4--
Tap to rate this tab
# A B C D E F G H I J K L M N O P Q R S T U V W X Y Z