Song name
# A B C D E F G H I J K L M N O P Q R S T U V W X Y Z

Misc Unsigned Bands - Tear Out The Heart - Like A G6 tab

We've had lots of people on Youtube asking for a tab for this song, so here it is

DROP G TUNING



LIKE A G6


INTRO/MAIN RIFF
|---------------------------------------------------------------------------|
|---------------------------------------------------------------------------|
|---------------------------------------------------------------------------|
|---------------------------------------------------------------------------|
|---------------------------------------------------------------------------|
|-0-0-0-12-7---8-8-8-8-7-----0-0-0--12-7--8-8-8---00-0--00-00---------------|
                                                   ..    ..
CHORUS
|---------------------------------------------------------------------------|
|---------------------------------------------------------------------------|
|---------------------------------------------------------------------------|
|---------------------------------------------------------------------------|
|---------------------------------------------------------------------------|
|-00000000-12-0-0000000--7777777788887777-----------------------------------|


|---------------------------------------------------------------------------|
|---------------------------------------------------------------------------|
|---------------------------------------------------------------------------|
|---------------------------------------------------------------------------|
|-0--0--000000---8-7--------------------------------------------------------|
|-0--0--000000---8-7--------------------------------------------------------|


VERSE
|----------------------------------------------------------------|
|----------------------------------------------------------------|
|----------------------------------------------------(X2)--------|
|----------------------------------------------------------------|
|-5-----5-----5---0------1-----1-----1-----0-----0---------------|
|---000---000---0---000----000---000---000---000--000------------|



|------------------------------------------------------------|
|------------------------------------------------------------|
|------------------------------------------------------------|
|-12-----12----12--10---12----10----12----10-----10----------|
|------------------------------------------------------------|
|----888---888---8---8----888---888---888---888-----888------|




BREAKDOWN
|---------------------------------------------------------------------------|
|---------------------------------------------------------------------------|
|---------------------------------------------------------------------------|
|---------------------------------------------------------------------------|
|-------111111-------------------111111-------------------------------------|
|-0-0---000000---0--0-------0-0--000000---0-0---1b^-------------------------|


FINAL BREAKDOWN
|---------------------------------------------------------------------------|
|---------------------------------------------------------------------------|
|---------------------------------------------------------------------------|
|---------------------------------------------------------------------------|
|-1-1--111111-----------1-1--111111-----------------------------------------|
|-0-0--000000---1b^-----0-0--000000---3*-3*---------------------------------|
Tap to rate this tab
# A B C D E F G H I J K L M N O P Q R S T U V W X Y Z