Song name
# A B C D E F G H I J K L M N O P Q R S T U V W X Y Z

Misc Unsigned Bands - Brads One Man Band - First Crush tab

BRADS ONE MAN BAND
'FIRST CRUSH'
ACOUSTIC LOVE SONGS
http://communities.msn.com/BradsOneManBand


INTRO-play whole thing 2 times
E-------------------------------------------
B-------------------------------------------
G--5-5-5-5--7-7-7-7--9-9-9-9--10-10--12-12--
D--x-x-x-x--x-x-x-x--x-x-x-x--x--x---x--x---
A--3-3-3-3--5-5-5-5--7-7-7-7--8--8---10-10--
E-------------------------------------------

VERSE-
E--------------------------------------
B--------------------------------------
G--5-5-5-5--7-7-7-7--------------------
D--5-5-5-5--7-7-7-7--7-7-7-7--3-3-3-3--
A--3-3-3-3--5-5-5-5--7-7-7-7--3-3-3-3--
E--------------------5-5-5-5--1-1-1-1--

CHORUS-
E-----------------------------------
B-----------------------------------
G--5-5--7-7--9-9-9-9--10-10--12-12--
D--5-5--7-7--9-9-9-9--10-10--12-12--
A--3-3--5-5--7-7-7-7--8--8---10-10--
E-----------------------------------
Tap to rate this tab
 
# A B C D E F G H I J K L M N O P Q R S T U V W X Y Z