Song name
# A B C D E F G H I J K L M N O P Q R S T U V W X Y Z

Misc Unsigned Bands - 32 Pints Of Apple Juice - Tale Of The Storytellers tab

e---------------|-----------------|--------------|
B---------------|-----------------|--------------|
G----3h5-5-5-3--|-----------------|--------------|
D--------------5|-----------------|--------------|  Main Riff (verse)
A---------------|-3-3s5-6---6-7-8-|-8-9-10--6-5-3|
E---------------|-----------------|--------------|

e---------------------------|
B---------------------------|
G---5-----8-----------3-----|
D---5-x4--8-x4-5------3--x4-| x2  Chorus (listen for the rhythm)
A---3-----6----5--x4--1-----|
E--------------3------------|

e-------------------|-------------------|
B-------------------|-------------------|
G-------------------|-8-10b-8-----------|
D-------------------|---------10-8------| Second Verse Riff (play once then 
A---3-3s5-6---6-7-8-|---------------10-8| go back to first verse riff)
E-------------------|-------------------|

e-------------------------------------------------------------|
B-------------------------------------------------------------|
G------------8h10--12-10-12-15-12-15-17--15-------------------|
D-------8h10--------------------------------17-15-------------|
A--8h10-------------------------------------------18-15-13-10-|
E-------------------------------------------------------------|

Solo

e---------------------------------------------------------------|
B---------------------------------------------------------------|
G--15-171717-15---15---------------------15h17-202020--17-15-17-|
D--------------17---17-15----------15h17------------------------|
A-------------------------18-15h18------------------------------|
E---------------------------------------------------------------|

e----------------------------------------------------------------18-20--|
B----------------------------------------------------------18-20--------|
G--15h17p15--15-----------------------------15-17-15-17-20--------------|
D----------17--17-15-17-15--15--------15-17-----------------------------|
A-------------------------18--18-15-18----------------------------------|
E-----------------------------------------------------------------------|

e--------------------------------------------------|
B--------------------------------------------------|
G----------3-5---------3-5-------3h5---3h5-55-3----|
D------3-5---------3-5--------3h5---3h5--------5-3-|
A--3h6---------3-6---------3h6---3h6---------------|
E--------------------------------------------------|

e--------------------------------------------------------------------|
B--------------------------------------------------------------------|
G--10-8--8-------------------------------------8----8-10-12-10-12s17-|
D------10-10-8-10-8---8---------8----8-10-8-10---10------------------|
A-------------------10--10--8-10--10---------------------------------|
E--------------------------------------------------------------------|

e---------------------------------------------------------------------------|
B---------------------------------------------------------------------------|
G-15h17p15--15-17b--15h17p15--15-17b-15h17p15---15h17p15----15h17p15--15-17b|
D---------17----------------17---------------17---------17----------17------|
A---------------------------------------------------------------------------|
E---------------------------------------------------------------------------|

e------------------------------18-18-18--20-20-20-20-20-20-20b-20-|
B-----------18-18-18--20-20-20------------------------------------|
G--20-20-20-------------------------------------------------------|
D-----------------------------------------------------------------|
A-----------------------------------------------------------------|
E-----------------------------------------------------------------|

Order:
Verse
Chorus
Verse2
Chorus
Bass Solo
Verse
Solo
Verse
Chorus
Verse.

b: Bend
h: Hammer-On
p: Pull-Off
s" Slide

Hope you enjoy. To help with playing check out http://www.youtube.com/32pintsofapplejuice
Tap to rate this tab
# A B C D E F G H I J K L M N O P Q R S T U V W X Y Z