Song name
# A B C D E F G H I J K L M N O P Q R S T U V W X Y Z

Misc Unsigned Bands - Hetalia - Hatafutte Parade tab

e| -----------------------------------------------|
B| -----------------------------------------------|
G| -----------------------------------------------|
D| --0--0-0--0-0--0-2--0-0---3--3-3--3-3--3-5--3--|
A|------------------------------------------------|
E|------------------------------------------------|


e| ------------------------------------------------------------------------|
B| ------------------------------------------------------------------------|
G| ------------------------------------------------------------------------|
D| ------------------------------------------------------------------------|
A| --4--4--0--0--4--4--0--0--5--5-5------7--4----2--2-2--5--4--0--2--4--2--|
E| ------------------------------------------------------------------------|



e| ------------------------------------------------------------------------|
B| ------------------------------------------------------------------------|
G| ------------------------------------------------------------------------|
D| ------------------------------------------------------------------------|
A| --4--4--0--0--4--4--0--0--5--5-5------7--4----2--2-2--5--4--0--2--7--0--|
E| ------------------------------------------------------------------------|


e| ---------------------------------------------------------------------------------------|
B| ---------------------------------------------------------------------------------------|
G| ---------------------------------------------------------------------------------------|
D| --5--5-3--3-1--1-0--0--------3----------5-3--------------------------------------------|
A|----------------------------2--2----0----2---------5-4-2-0------0----0------------------|
E| -------------------------------------------------------------------------------4----4--|
Tap to rate this tab
 
# A B C D E F G H I J K L M N O P Q R S T U V W X Y Z