Song name
# A B C D E F G H I J K L M N O P Q R S T U V W X Y Z

Misc Unsigned Bands - Kay Pettigrew - The Fresh Prince Of Bel Air Theme tab

Title: kay pettigrew - the fresh prince of bel air theme
Tempo = 103
This is a tab of the youtube version of this song which can be seen at 
http://youtu.be/JJGQ_tTmYgI
Saw this song on youtube and thought it would be a cool fingerpicking song to
play. Tabbed it for myself but perhaps some other people will also want it.
This is pretty much exactly what she plays in the video 1:1 although I fixed
a few parts where she messed up or just put in some sort of alternate version
of what she plays if the part I was listening to was too muddy. It is a 360p 
video after all.

Also submitted a Guitar Pro version of this if you have that program. 


CAPO: 7th fret

E |----------------------------------------------------|
B |--------------------------0--------------------0----|
G |-----------------0-----------------------0----------|
D |--------2--------------------------2----------------|
A |--3-----3-----3-----3-----3-----3-----3-----3-------|
E |----------------------------------------------------|


----------------------------------------------------|
----------------------------------------------------|
----------------------------------------------------|
-----------------0-----------------0-----------0----|
--------0--2s-------------0--2s----------2----------|
--3-----3-----3-----3-----3-----3-----3-----3-------|


--------0-------------------------------------------|
-----------------0-----------------------0-----0----|
-----------------------------------0----------------|
--------------------------0--2s---------------------|
--3-----3-----3-----3-----3-----3-----3-----3-------|
----------------------------------------------------|


----------------------------------------------------|
----------------------------------------------------|
----------------------------------------------------|
-----------------0----------------------------------|
--------0--2s-------------0--2s----3-----2-----2----|
--3-----3-----3-----3-----3-----3-----3-----3-------|


----------------------------------------------------|
--------0--------------------------------------0----|
--------------------------0--------------0----------|
-----------------2-----------------2----------------|
--3-----3-----3-----3-----3-----3-----3-----3-------|
----------------------------------------------------|


----------------------------------------------------|
----------------------------------------------------|
----------------------------------------------------|
-----------------0-----------------0-----------0----|
--------0--2s-------------0--2s----------2----------|
--3-----3-----3-----3-----3-----3-----3-----3-------|


----------------------------------------------------|
--------0-------------------------------------------|
--------------------------0--------------0-----0----|
-----------------2-----------------2----------------|
--3-----3-----3-----3-----3-----3-----3-----3-------|
----------------------------------------------------|


----------------------------------------------------|
----------------------------------------------------|
----------------------------------------------------|
-----------------0----------------------------------|
--------0--2s-------------0--2s----2-----0-----2----|
--3-----3-----3-----3-----3-----3-----3-----3-------|


----------------------------------------------------|
----------------------------------------------------|
----------------------------------------------------|
----------------------------------------------------|
-----0-----2-----0-----2-----0-----2-----0-----2----|
--3-----3-----3-----3-----3-----3-----3-----3-------|


----------------------------------------------------|
--------0-------------------------------------------|
-----------------0-----------------0-----------0----|
--------------------------2--------------2----------|
--3-----3-----3-----3-----3-----3-----3-----3-------|
----------------------------------------------------|


----------------------------------------------------|
----------------------------------------------------|
----------------------------------------------------|
-----------------0-----------------0-----------0----|
--------0--2s-------------0--2s----------2----------|
--3-----3-----3-----3-----3-----3-----3-----3-------|


----------------------------------------------------|
--------0--------------------------------0-----0----|
-----------------0-----------------0----------------|
--------------------------2-------------------------|
--3-----3-----3-----3-----3-----3-----3-----3-------|
----------------------------------------------------|


----------------------------------------------------|
----------------------------------------------------|
----------------------------------------------------|
-----------------0-----------------0-----------0----|
--------0--2s-------------0--2s----------2----------|
--3-----3-----3-----3-----3-----3-----3-----3-------|


----------------------------------------------------|
--------0-------------------------------------------|
--------------------------------0-----------0-------|
--------------------2-------------------------------|
--3-----3-----3-----3-----3-----3-----3-----3-------|
----------------------------------------------------|


----------------------------------------------------|
----------------------------------------------------|
----------------------------------------------------|
-----------------0-----------------0-----------0----|
--------2-----------------2--------------2----------|
--3-----3-----3-----3-----3-----3-----3-----3-------|


----------------------------------------------------|
--------0-------------------------------------------|
--------------------------0--------------0-----0----|
-----------------2-----------------2----------------|
--3-----3-----3-----3-----3-----3-----3-----3-------|
----------------------------------------------------|


----------------------------------------------------|
----------------------------------------------------|
----------------------------------------------------|
-----------------0-----------------0-----------0----|
--------2-----------------2--------------2----------|
--3-----3-----3-----3-----3-----3-----3-----3-------|


----------------------------------------------------|
--------0-------------------------------------------|
--------------------------0--------------0-----0----|
-----------------2-----------------2----------------|
--3-----3-----3-----3-----3-----3-----3-----3-------|
----------------------------------------------------|


----------------------------------------------------|
----------------------------------------------------|
----------------------------------------------------|
-----------------0-----------------0-----------0----|
--------2-----------------2--------------2----------|
--3-----3-----3-----3-----3-----3-----3-----3-------|


----------------------------------------------------|
--------0-------------------------------------------|
--------------------------------0-----------0-------|
--------------------2-------------------------------|
--3-----3-----3-----3-----3-----3-----3-----3-------|
----------------------------------------------------|


----------------------------------------------------|
----------------------------------------------------|
----------------------------------------------------|
-----------------0-----------------0-----------0----|
--------2-----------------2--------------2----------|
--3-----3-----3-----3-----3-----3-----3-----3-------|


----------------------------------------------------|
--------------------------0-------------------------|
--------0--------------------------------0-----0----|
-----------------2-----------------2----------------|
--3-----3-----3-----3-----3-----3-----3-----3-------|
----------------------------------------------------|


----------------------------------------------------|
----------------------------------------------------|
----------------------------------------------------|
-----------------0-----------------0-----------0----|
--------2-----------------2--------------2----------|
--3-----3-----3-----3-----3-----3-----3-----3-------|


----------------------------|-------|
-----3-----3-----3-----3----|-------|
-----2-----2-----2-----2----|-------|
--0--0--0--0--0--0--0--0----|-------|
----------------------------|-------|
----------------------------|--0----|


----------------------------------------------------|
-----------0----------------------------------------|
-----------------------------0-----------------0----|
--2-----------------0--2s-------------0--2s---------|
--3-----3-----3-----3-----3-----3-----3-----3-------|
----------------------------------------------------|


----------------------------------------------------|
----------------------------------------------------|
----------------------------------------------------|
-----------------0-----------------0-----------0----|
--------0--2s-------------0--2s----------2----------|
--3-----3-----3-----3-----3-----3-----3-----3-------|


----------------------------------------------------|
--------0--------------------------------------0----|
--------------------------0--------------0----------|
-----------------2-----------------2----------------|
--3-----3-----3-----3-----3-----3-----3-----3-------|
----------------------------------------------------|


----------------------------------------------------|
----------------------------------------------------|
----------------------------------------------------|
-----------------0----------------------------------|
--------0--2s-------------0--2s----3-----2-----2----|
--3-----3-----3-----3-----3-----3-----3-----3-------|


----------------------------------------------------|
--------0--------------------------------------0----|
--------------------------0--------------0----------|
-----------------2-----------------2----------------|
--3-----3-----3-----3-----3-----3-----3-----3-------|
----------------------------------------------------|


----------------------------------------------------|
----------------------------------------------------|
----------------------------------------------------|
-----------------0----------------------------------|
--------0--2s-------------0--2s----3-----2-----2----|
--3-----3-----3-----3-----3-----3-----3-----3-------|


----------------------------------------------------|
--------0--------------------------------------0----|
--------------------------0--------------0----------|
-----------------2-----------------2----------------|
--3-----3-----3-----3-----3-----3-----3-----3-------|
----------------------------------------------------|


----------------------------------------------------|
----------------------------------------------------|
----------------------------------------------------|
-----------------0-----------------0-----------0----|
--------2-----------------2--------------2----------|
--3-----3-----3-----3-----3-----3-----3-----3-------|


----------------------------------------------------|
----------------------------------------------------|
----------------------------------------------------|
-----------0-----------0-----------0-----------0----|
-----2-----------2-----------2-----------2----------|
--3-----3-----3-----3-----3-----3-----3-----3-------|


----------------------------------------------------|
--------0-------------------------------------------|
-----------------0-----------------0-----------0----|
--------------------------2--------------2----------|
--3-----3-----3-----3-----3-----3-----3-----3-------|
----------------------------------------------------|


----------------------------------------------------|
----------------------------------------------------|
----------------------------------------------------|
-----------------0-----------------0-----------0----|
--------2-----------------2--------------2----------|
--3-----3-----3-----3-----3-----3-----3-----3-------|


----------------------------------------------------|
--------0-------------------------------------------|
--------------------------------0-------------------|
--------------------2-----------------------2-------|
--3-----3-----3-----3-----3-----3-----3-----3-------|
----------------------------------------------------|


----------------------------------------------------|
----------------------------------------------------|
----------------------------------------------------|
-----------------0-----------------0-----------0----|
--------0--2s-------------2--------------2----------|
--3-----3-----3-----3-----3-----3-----3-----3-------|


----------------------------------------------------|
--------0-------------------------------------------|
--------------------------0--------------0-----0----|
-----------------2-----------------2----------------|
--3-----3-----3-----3-----3-----3-----3-----3-------|
----------------------------------------------------|


----------------------------------------------------|
----------------------------------------------------|
----------------------------------------------------|
-----------------0-----------------0-----------0----|
--------2-----------------2--------------2----------|
--3-----3-----3-----3-----3-----3-----3-----3-------|


----------------------------|-----0L-0-------|
-----3-----3-----3-----3----|-----0L-0-------|
-----2-----2-----2-----2----|-----0L-0-------|
--0--0--0--0--0--0--0--0----|-----2L-2-------|
----------------------------|--3--3L-3-------|
----------------------------|----------------|


----------------------------------------------------|
-----------0----------------------------------------|
-----------------------------0-----------------0----|
--2-----------------0--2s-------------0--2s---------|
--3-----3-----3-----3-----3-----3-----3-----3-------|
----------------------------------------------------|


----------------------------------------------------|
----------------------------------------------------|
----------------------------------------------------|
-----------------0-----------------0-----------0----|
--------0--2s-------------0--2s----------2----------|
--3-----3-----3-----3-----3-----3-----3-----3-------|


----------------------------------------------------|
--------0--------------------------------------0----|
--------------------------0--------------0----------|
-----------------2-----------------2----------------|
--3-----3-----3-----3-----3-----3-----3-----3-------|
----------------------------------------------------|


----------------------------------------------------|
----------------------------------------------------|
----------------------------------------------------|
-----------------0----------------------------------|
--------0--2s-------------0--2s----3-----2-----2----|
--3-----3-----3-----3-----3-----3-----3-----3-------|


--------0-----------0-----------0--------0--0--0----|
--------3-----------3-----------3--------3--3--3----|
--------0-----------0-----------0--------0--0--0----|
--------2-----------2-----------2--------2--2--2----|
--------3-----------3-----------3--------3--3--3----|
--0-----------0-----------0-----------0-------------|


--------2-----------2-----------2--------2--2--2----|
--------3-----------3-----------3--------3--3--3----|
--------2-----------2-----------2--------2--2--2----|
--------0-----------0-----------0--------0--0--0----|
----------------------------------------------------|
--2-----------2-----------2-----------2-------------|


-----0-----0-----0-----0----|
-----0-----0-----0-----0----|
-----0-----0-----0-----0----|
-----2-----2-----2-----2----|
--3--3--3--3--3--3--3--3----|
----------------------------|


--------0-----------0-----------0--------0--0--0----|
--------0-----------0-----------0--------0--0--0----|
--------0-----------0-----------0--------0--0--0----|
--------4-----------4-----------4--------4--4--4----|
--5-----5-----5-----5-----5-----5-----5--5--5--5----|
----------------------------------------------------|


-----0-----0-----0-----0----|-----0-----0-----0-----0----|
-----0-----0-----0-----0----|-----0-----0-----0-----0----|
-----0-----0-----0-----0----|-----0-----0-----0-----0----|
-----2-----2-----2-----2----|-----0-----0-----0-----0----|
-----3-----3-----3-----3----|-----3-----3-----3-----3----|
--0-----0-----0-----0-------|--2-----2-----2-----2-------|


-----0-----0-----0-----0----|-----0-----0-----0-----0----|
-----0-----0-----0-----0----|-----0-----0-----0-----0----|
-----0-----0-----0-----0----|-----0-----0-----0-----0----|
-----2-----2-----2-----2----|-----4--4--4-----4--4--4----|
--3--3--3--3--3--3--3--3----|--5--5-----5--5--5-----5----|
----------------------------|----------------------------|


-----0-----0-----0-----0----|-----2-----2-----2-----2----|
-----0-----0-----0-----0----|-----3-----3-----3-----3----|
-----0-----0-----0-----0----|-----2-----2-----2-----2----|
-----2-----2-----2-----2----|-----0-----0-----0-----0----|
-----3-----3-----3-----3----|----------------------------|
--0-----0-----0-----0-------|--2-----2-----2-----2-------|


--------------0L----0-----------------0-------------|
--------------0L----0-----------------0-------------|
--------------0L----0-----------------0-------------|
--------2-----2L----2--2--------------2-------------|
--3-----------3L----3-----3-----3-----3-----3-------|
----------------------------------------------------|


--------0L----0-------------|
--------0L----0-------------|
--------0L----0-------------|
--------4L----4-------------|
--5--5--5L----5-------------|
----------------------------|


----------------------------------------------------|
-----------0----------------------------------------|
-----------------------------0-----------------0----|
--2-----------------0--2s-------------0--2s---------|
--3-----3-----3-----3-----3-----3-----3-----3-------|
----------------------------------------------------|


----------------------------------------------------|
----------------------------------------------------|
----------------------------------------------------|
-----------------0-----------------0-----------0----|
--------0--2s-------------0--2s----------2----------|
--3-----3-----3-----3-----3-----3-----3-----3-------|


----------------------------------------------------|
--------0--------------------------------------0----|
--------------------------0--------------0----------|
-----------------2-----------------2----------------|
--3-----3-----3-----3-----3-----3-----3-----3-------|
----------------------------------------------------|


----------------------------------------------------|
----------------------------------------------------|
----------------------------------------------------|
-----------------0-----------------0-----------0----|
--------0--2s-------------0--2s----------2----------|
--3-----3-----3-----3-----3-----3-----3-----3-------|


--------0-------------------------------------------|
-----------------0-----------------------0-----0----|
-----------------------------------0----------------|
--------------------------2-------------------------|
--3-----3-----3-----3-----3-----3-----3-----3-------|
----------------------------------------------------|


----------------------------------------------------|
----------------------------------------------------|
----------------------------------------------------|
-----------------0----------------------------------|
--------0--2s-------------0--2s----3-----2-----2----|
--3-----3-----3-----3-----3-----3-----3-----3-------|


----------------------------------------------------|
--------0-------------------------------------------|
--------------------------0--------------0-----0----|
-----------------2-----------------2----------------|
--3-----3-----3-----3-----3-----3-----3-----3-------|
----------------------------------------------------|


--------------------------------------3-------------||
----------------------------------------------------||
--------------------------0-------------------------||
-----------------0--2s------------------------------||
--------0--2s---------------------------------------||
--3-----3-------------------------------------------||
Tap to rate this tab
 
# A B C D E F G H I J K L M N O P Q R S T U V W X Y Z