Song name
# A B C D E F G H I J K L M N O P Q R S T U V W X Y Z

Misc Unsigned Bands - Donkey Kong 64 - Angry Aztec tab

/=Slide up to fret #

h=hammer-on to fret #

b=bend up to fret #

The actual tuning on the real song is not Drop D it's a completely different tuning but 
i don't know what it is, so I would listen to the song and try to tune like that.

E|----------------------------------------------------------------|
B|----------------------------------------------------------------|
G|------------------------------------4--4------------------------|
D|-5--5-6-5-3-5---------5--5-6-5-3-5--------5---5--5-6-5-3-5------|
A|---------------5--5----------------------------------------4--4-|
D|----------------------------------------------------------------|

E|----------------------------------------------------------------|
B|----------------------------------------------------------------|
G|------------------------------------------------------4--4/7----|
D|---------------------5--5-6-5-3-5--------5--5-6-5-3-5-----------|
A|--8--6-5-6--6-8-6-8----------------5--5-------------------------|
D|----------------------------------------------------------------|

E|----------------------------------------------------------------|
B|----------------------------------------------8--8-9-8-6-8------|
G|--7--7-8-7-5-7--4--4--10--8-7-8--8-10-8-10-7----------------7-7-|
D|----------------------------------------------------------------|
A|----------------------------------------------------------------|
D|----------------------------------------------------------------|

E|--------------7-7/10--10--10-11-10-8-10--7--7--13-11-10-11-11-13|
B|-8--8-9-8-6-8---------------------------------------------------|
G|----------------------------------------------------------------|
D|----------------------------------------------------------------|
A|----------------------------------------------------------------|
D|----------------------------------------------------------------|

E|-11-13----------------------------------------------------------|
B|----------------------------------------------------------------|
G|-------11-11-11-13-11-10-11-------------------------------------|
D|----------------------------11-11-11-14-12-11-12-14-12-7-8-7-8-7|
A|----------------------------------------------------------------|
D|----------------------------------------------------------------|

E|----------------------------------------------------------------|
B|----------------------------------------------------------------|
G|---------------------------10-11-10-11-9-10-11-11-11-13-11-10-11|
D|-8-10--10h11-10-8-10-11-12--------------------------------------|
A|----------------------------------------------------------------|
D|----------------------------------------------------------------|

E|----------------------------------------------------------------|
B|----------------------------------------------------------------|
G|-------------------------------------------------9--10----------|
D|-11-11-11-14-12-11-12-14-7--8-7-8-7-8-10--10h11-----------10----|
A|-------------------------------------------------------10----10-|
D|----------------------------------------------------------------|

E|----------------------------------------------------------------|
B|----------------------------------------------------------------|
G|------------------11--11b12-------------------------------------|
D|-----13-12----12------------------------------------------------|
A|-10--------12---------------------------------------------------|
D|----------------------------------------------------------------|
Tap to rate this tab
 
# A B C D E F G H I J K L M N O P Q R S T U V W X Y Z