Song name
# A B C D E F G H I J K L M N O P Q R S T U V W X Y Z

Misc Unsigned Bands - Stay Classy - Stay Fucking Classy tab

-= Tabs for Untitled Song =-

==================================================================================

Guitar Help
==================================================================================

o = Open
m = Palm-Muted
x = Harmonics
r = Reversed Swell.  Achieved with the volume button or a volume pedal.

==================================================================================

Guitar 1 Tabs
==================================================================================

  0:00
E ------------------------------------------------------------------------------------------------|
B ------------------------------------------------------------------------------------------------|
G ------------------------------------------------------------------------------------------------|
D ------------------------------------------------------------------------------------------------|
A ------------------------------------------------------------------------------------------------|
E ------------------------------------------------------------------------------------------------|
  ------------------------------------------------------------------------------------------------|

  0:02
E ------------------------------------------------------------------------------------------------|
B ------------------------------------------------------------------------------------------------|
G ------------------------------------------------------------------------------------------------|
D ------------------------------------------------------------------------------------------------|
A ------------------------------------------------------------------------------------------------|
E ------------------------------------------------------------------------------------------------|
  ------------------------------------------------------------------------------------------------|

  0:05
E ------------------------------------------------------------------------------------------------|
B ------------------------------------------------------------------------------------------------|
G ------------------------8-----------------------5-----------------------------------------------|
D 5-----------------------8-----------------------5-----------------------------------8-----------|
A 5-----------------------6-----6--6--6--6--6--6--3-----3--3--3--3--3--3--3--3--3--3--8-----------|
E 3-----3--3--3--3--3--3--------------------------------------------------------------6-----6--6--|
  o-----m--m--m--m--m--m--o-----m--m--m--m--m--m--o-----m--m--m--m--m--m--m--m--m--m--o-----m--m--|

  0:08
E ------------------------------------------------------------------------------------------------|
B ------------------------------------------------------------------------------------------------|
G 5-----------------------------------------------------------------------------------------------|
D 5-----------------------8-----------------------5-----------------------------------------------|
A 3-----3--3--3--3--3--3--8-----------------------5-----------------------------------------------|
E ------------------------6-----6--6--6--6--6--6--3-----3--3--3--3--3--3--3--3--3--3--3--3--3--3--|
  o-----m--m--m--m--m--m--o-----m--m--m--m--m--m--o-----m--m--m--m--m--m--m--m--m--m--m--m--m--m--|

  0:11
E ------------------------------------------------------------------------------------------------|
B ------------------------------------------------------------------------------------------------|
G ------------------------8-----------------------5-----------------------------------------------|
D 5-----------------------8-----------------------5-----------------------------------8-----------|
A 5-----------------------6-----6--6--6--6--6--6--3-----3--3--3--3--3--3--3--3--3--3--8-----------|
E 3-----3--3--3--3--3--3--------------------------------------------------------------6-----6--6--|
  o-----m--m--m--m--m--m--o-----m--m--m--m--m--m--o-----m--m--m--m--m--m--m--m--m--m--o-----m--m--|

  0:14
E ------------------------------------------------------------------------------------------------|
B ------------------------------------------------------------------------------------------------|
G 5-----------------------------------------------------------------------------------------------|
D 5-----------------------8-----------------------5-----------------------------------------------|
A 3-----3--3--3--3--3--3--8-----------------------5-----------------------------------------------|
E ------------------------6-----6--6--6--6--6--6--3-----3--3--3--3--3--3--3--3--3--3--3--3--3--3--|
  o-----m--m--m--m--m--m--o-----m--m--m--m--m--m--o-----m--m--m--m--m--m--m--m--m--m--m--m--m--m--|

  0:16
E ------------------------------------------------------------------------------------------------|
B ------------------------------------------------------------------------------------------------|
G ------------------------5-----5-----8-----8-----------------------------5-----5-----8-----8-----|
D 5-----5-----8-----8-----5-----5-----8-----8-----5-----5-----8-----8-----5-----5-----8-----8-----|
A 5-----5-----8-----8-----3-----3-----6-----6-----5-----5-----8-----8-----3-----3-----6-----6-----|
E 3-----3-----6-----6-----------------------------3-----3-----6-----6-----------------------------|
  m-----m-----m-----m-----m-----m-----m-----m-----m-----m-----m-----m-----m-----m-----m-----m-----|

  0:19
E ------------------------------------------------------------------------------------------------|
B ------------------------------------------------------------------------------------------------|
G ------------------------------------------------------------------------------------------------|
D 5-----5-----------5-----------5-----3-----------5-----5-----------------------------------------|
A 5-----5-----------5-----------5-----3-----------5-----5-----------------------------------------|
E 3-----3-----------3-----------3-----1-----------3-----3-----------------------------------------|
  o-----o-----------o-----------o-----o-----------o-----o-----------------------------------------|

  0:22
E ------------------------------------------------------------------------------------------------|
B ------------------------------------------------------------------------------------------------|
G -----------------------------------5------------------------------------------------------------|
D 8-----8-----------8-----------8----5------------5-----5-----------------------------------------|
A 8-----8-----------8-----------8----3------------5-----5-----------------------------------------|
E 6-----6-----------6-----------6-----------------3-----3-----------------------------------------|
  o-----o-----------o-----------o-----------------o-----o-----------------------------------------|

  0:25
E ------------------------------------------------------------------------------------------------|
B ------------------------------------------------------------------------------------------------|
G ------------------------------------------------------------------------------------------------|
D 5-----5-----------5-----------5-----3-----------5-----5-----------------------------------------|
A 5-----5-----------5-----------5-----3-----------5-----5-----------------------------------------|
E 3-----3-----------3-----------3-----1-----------3-----3-----------------------------------------|
  o-----o-----------o-----------o-----o-----------o-----o-----------------------------------------|

  0:28
E ------------------------------------------------------------------------------------------------|
B ------------------------------------------------------------------------------------------------|
G -----------------------------------5------------------------------------------------------------|
D 8-----8-----------8-----------8----5------------5-----5-----------------------------------------|
A 8-----8-----------8-----------8----3------------5-----5-----------------------------------------|
E 6-----6-----------6-----------6-----------------3-----3-----------------------------------------|
  o-----o-----------o-----------o-----------------o-----o-----------------------------------------|

  0:31
E ------------------------------------------------------------------------------------------------|
B ------------------------------------------------------------------------------------------------|
G ------------------------8-----------------------5-----------------------------------------------|
D 5-----------------------8-----------------------5-----------------------------------8-----------|
A 5-----------------------6-----6--6--6--6--6--6--3-----3--3--3--3--3--3--3--3--3--3--8-----------|
E 3-----3--3--3--3--3--3--------------------------------------------------------------6-----6--6--|
  o-----m--m--m--m--m--m--o-----m--m--m--m--m--m--o-----m--m--m--m--m--m--m--m--m--m--o-----m--m--|

  0:33
E ------------------------------------------------------------------------------------------------|
B ------------------------------------------------------------------------------------------------|
G 5-----------------------------------------------------------------------------------------------|
D 5-----------------------8-----------------------5-----------------------------------------------|
A 3-----3--3--3--3--3--3--8-----------------------5-----------------------------------------------|
E ------------------------6-----6--6--6--6--6--6--3-----3--3--3--3--3--3--3--3--3--3--3--3--3--3--|
  o-----m--m--m--m--m--m--o-----m--m--m--m--m--m--o-----m--m--m--m--m--m--m--m--m--m--m--m--m--m--|

  0:36
E ------------------------------------------------------------------------------------------------|
B ------------------------------------------------------------------------------------------------|
G ------------------------8-----------------------5-----------------------------------------------|
D 5-----------------------8-----------------------5-----------------------------------8-----------|
A 5-----------------------6-----6--6--6--6--6--6--3-----3--3--3--3--3--3--3--3--3--3--8-----------|
E 3-----3--3--3--3--3--3--------------------------------------------------------------6-----6--6--|
  o-----m--m--m--m--m--m--o-----m--m--m--m--m--m--o-----m--m--m--m--m--m--m--m--m--m--o-----m--m--|

  0:39
E ------------------------------------------------------------------------------------------------|
B ------------------------------------------------------------------------------------------------|
G 5-----------------------------------------------------------------------------------------------|
D 5-----------------------8-----------------------5-----------------------------------------------|
A 3-----3--3--3--3--3--3--8-----------------------5-----------------------------------------------|
E ------------------------6-----6--6--6--6--6--6--3-----3--3--3--3--3--3--3--3--3--3--3--3--3--3--|
  o-----m--m--m--m--m--m--o-----m--m--m--m--m--m--o-----m--m--m--m--m--m--m--m--m--m--m--m--m--m--|

  0:42
E ------------------------------------------------------------------------------------------------|
B ------------------------------------------------------------------------------------------------|
G ------------------------5-----5-----8-----8-----------------------------5-----5-----8-----8-----|
D 5-----5-----8-----8-----5-----5-----8-----8-----5-----5-----8-----8-----5-----5-----8-----8-----|
A 5-----5-----8-----8-----3-----3-----6-----6-----5-----5-----8-----8-----3-----3-----6-----6-----|
E 3-----3-----6-----6-----------------------------3-----3-----6-----6-----------------------------|
  m-----m-----m-----m-----m-----m-----m-----m-----m-----m-----m-----m-----m-----m-----m-----m-----|

  0:45
E ------------------------------------------------------------------------------------------------|
B ------------------------------------------------------------------------------------------------|
G ------------------------5-----5-----8-----8-----------------------------5-----5-----8-----8-----|
D 5-----5-----8-----8-----5-----5-----8-----8-----5-----5-----8-----8-----5-----5-----8-----8-----|
A 5-----5-----8-----8-----3-----3-----6-----6-----5-----5-----8-----8-----3-----3-----6-----6-----|
E 3-----3-----6-----6-----------------------------3-----3-----6-----6-----------------------------|
  m-----m-----m-----m-----m-----m-----m-----m-----m-----m-----m-----m-----m-----m-----m-----m-----|

  0:47
E ------------------------------------------------------------------------------------------------|
B ------------------------------------------------------------------------------------------------|
G ------------------------------------------------------------------------------------------------|
D 5-----------------------------------------------------------------------------------------------|
A 5-----------------------------------------------------------------------------------------------|
E 3-----------------------------------------------------------------------------------------------|
  o-----------------------------------------------------------------------------------------------|

  0:50
E ------------------------------------------------------------------------------------------------|
B ------------------------------------------------------------------------------------------------|
G ------------------------------------------------------------------------------------------------|
D ------------------------------------------------------------------------------------------------|
A ------------------------------------------------------------------------------------------------|
E ------------------------------------------------------------------------------------------------|
  ------------------------------------------------------------------------------------------------|

  0:53
E ------------------------------------------------------------------------------------------------|
B ------------------------------------------------------------------------------------------------|
G ------------------------------------------------------------------------------------------------|
D 5-----------------------------------------------------------------------------------------------|
A 5-----------------------------------------------------------------------------------------------|
E 3-----------------------------------------------------------------------------------------------|
  o-----------------------------------------------------------------------------------------------|

  0:56
E ------------------------------------------------------------------------------------------------|
B ------------------------------------------------------------------------------------------------|
G ------------------------------------------------------------------------------------------------|
D ------------------------------------------------------------------------------------------------|
A ------------------------------------------------------------------------------------------------|
E ------------------------------------------------------------------------------------------------|
  ------------------------------------------------------------------------------------------------|

  0:59
E ------------------------------------------------------------------------------------------------|
B ------------------------------------------------------------------------------------------------|
G ------------------------------------------------------------------------------------------------|
D 5-----5-----5-----5-----5-----5-----5-----5-----5-----5-----5-----5-----5-----5-----5-----5-----|
A 5-----5-----5-----5-----5-----5-----5-----5-----5-----5-----5-----5-----5-----5-----5-----5-----|
E 3-----3-----3-----3-----3-----3-----3-----3-----3-----3-----3-----3-----3-----3-----3-----3-----|
  o-----o-----o-----o-----o-----o-----o-----o-----o-----o-----o-----o-----o-----o-----o-----o-----|

  1:02
E ------------------------------------------------------------------------------------------------|
B ------------------------------------------------------------------------------------------------|
G ------------------------------------------------------------------------------------------------|
D ------------------------------------------------------------------------------------------------|
A ------------------------------------------------------------------------------------------------|
E ------------------------------------------------------------------------------------------------|
  ------------------------------------------------------------------------------------------------|

  1:04
E ------------------------------------------------------------------------------------------------|
B ------------------------------------------------------------------------------------------------|
G ------------------------------------------------------------------------------------------------|
D 5-----5-----5-----5-----5-----5-----5-----5-----5-----5-----5-----5-----5-----5-----5-----5-----|
A 5-----5-----5-----5-----5-----5-----5-----5-----5-----5-----5-----5-----5-----5-----5-----5-----|
E 3-----3-----3-----3-----3-----3-----3-----3-----3-----3-----3-----3-----3-----3-----3-----3-----|
  o-----o-----o-----o-----o-----o-----o-----o-----o-----o-----o-----o-----o-----o-----o-----o-----|

  1:07
E ------------------------------------------------------------------------------------------------|
B ------------------------------------------------------------------------------------------------|
G ------------------------------------------------------------------------------------------------|
D 5-----5-----5-----5-----5-----5-----5-----5-----5-----5-----5-----5-----5-----5-----5-----5-----|
A 5-----5-----5-----5-----5-----5-----5-----5-----5-----5-----5-----5-----5-----5-----5-----5-----|
E 3-----3-----3-----3-----3-----3-----3-----3-----3-----3-----3-----3-----3-----3-----3-----3-----|
  o-----o-----o-----o-----o-----o-----o-----o-----o-----o-----o-----o-----o-----o-----o-----o-----|

  1:10
E ------------------------------------------------------------------------------------------------|
B ------------------------------------------------------------------------------------------------|
G ------------------------8-----------------------5-----------------------------------------------|
D 5-----------------------8-----------------------5-----------------------------------8-----------|
A 5-----------------------6-----6--6--6--6--6--6--3-----3--3--3--3--3--3--3--3--3--3--8-----------|
E 3-----3--3--3--3--3--3--------------------------------------------------------------6-----6--6--|
  o-----m--m--m--m--m--m--o-----m--m--m--m--m--m--o-----m--m--m--m--m--m--m--m--m--m--o-----m--m--|

  1:13
E ------------------------------------------------------------------------------------------------|
B ------------------------------------------------------------------------------------------------|
G 5-----------------------------------------------------------------------------------------------|
D 5-----------------------8-----------------------5-----------------------------------------------|
A 3-----3--3--3--3--3--3--8-----------------------5-----------------------------------------------|
E ------------------------6-----6--6--6--6--6--6--3-----3--3--3--3--3--3--3--3--3--3--3--3--3--3--|
  o-----m--m--m--m--m--m--o-----m--m--m--m--m--m--o-----m--m--m--m--m--m--m--m--m--m--m--m--m--m--|

  1:16
E ------------------------------------------------------------------------------------------------|
B ------------------------------------------------------------------------------------------------|
G ------------------------8-----------------------5-----------------------------------------------|
D 5-----------------------8-----------------------5-----------------------------------8-----------|
A 5-----------------------6-----6--6--6--6--6--6--3-----3--3--3--3--3--3--3--3--3--3--8-----------|
E 3-----3--3--3--3--3--3--------------------------------------------------------------6-----6--6--|
  o-----m--m--m--m--m--m--o-----m--m--m--m--m--m--o-----m--m--m--m--m--m--m--m--m--m--o-----m--m--|

  1:19
E ------------------------------------------------------------------------------------------------|
B ------------------------------------------------------------------------------------------------|
G 5-----------------------------------------------------------------------------------------------|
D 5-----------------------8-----------------------5-----------------------------------------------|
A 3-----3--3--3--3--3--3--8-----------------------5-----------------------------------------------|
E ------------------------6-----6--6--6--6--6--6--3-----3--3--3--3--3--3--3--3--3--3--3--3--3--3--|
  o-----m--m--m--m--m--m--o-----m--m--m--m--m--m--o-----m--m--m--m--m--m--m--m--m--m--m--m--m--m--|

  1:21
E ------------------------------------------------------------------------------------------------|
B ------------------------------------------------------------------------------------------------|
G ------------------------5-----5-----8-----8-----------------------------5-----5-----8-----8-----|
D 5-----5-----8-----8-----5-----5-----8-----8-----5-----5-----8-----8-----5-----5-----8-----8-----|
A 5-----5-----8-----8-----3-----3-----6-----6-----5-----5-----8-----8-----3-----3-----6-----6-----|
E 3-----3-----6-----6-----------------------------3-----3-----6-----6-----------------------------|
  o-----o-----o-----o-----o-----o-----o-----o-----o-----o-----o-----o-----o-----o-----o-----o-----|

  1:24
E ------------------------------------------------------------------------|
B ------------------------------------------------------------------------|
G ------------------------------------------------------------------------|
D 5-----------------------------------------------------------------------|
A 5-----------------------------------------------------------------------|
E 3-----------------------------------------------------------------------|
  o-----------------------------------------------------------------------|



==================================================================================

Guitar 2 Tabs
==================================================================================

  0:00
E ------------------------------------------------------------------------------------------------|
B ------------------------------------------------------------------------------------------------|
G ------------------------------------------------------------------------------------------------|
D ------------------------------------------------------------------------------------------------|
A ------------------------------------------------------------------------------------------------|
E ------------------------------------------------------------------------------------------------|
  ------------------------------------------------------------------------------------------------|

  0:02
E ------------------------------------------------------------------------------------------------|
B ------------------------------------------------------------------------------------------------|
G ------------------------------------------------------------------------------------------------|
D ------------------------------------------------------------------------------------------------|
A ------------------------------------------------------------------------------------------------|
E ------------------------------------------------------------------------------------------------|
  ------------------------------------------------------------------------------------------------|

  0:05
E ------------------------------------------------------------------------------------------------|
B ------------------------------------------------------------------------------------------------|
G ------------------------8-----------------------5-----------------------------------------------|
D 5-----------------------8-----------------------5-----------------------------------8-----------|
A 5-----------------------6-----6--6--6--6--6--6--3-----3--3--3--3--3--3--3--3--3--3--8-----------|
E 3-----3--3--3--3--3--3--------------------------------------------------------------6-----6--6--|
  o-----m--m--m--m--m--m--o-----m--m--m--m--m--m--o-----m--m--m--m--m--m--m--m--m--m--o-----m--m--|

  0:08
E ------------------------------------------------------------------------------------------------|
B ------------------------------------------------------------------------------------------------|
G 5-----------------------------------------------------------------------------------------------|
D 5-----------------------8-----------------------5-----------------------------------------------|
A 3-----3--3--3--3--3--3--8-----------------------5-----------------------------------------------|
E ------------------------6-----6--6--6--6--6--6--3-----3--3--3--3--3--3--3--3--3--3--3--3--3--3--|
  o-----m--m--m--m--m--m--o-----m--m--m--m--m--m--o-----m--m--m--m--m--m--m--m--m--m--m--m--m--m--|

  0:11
E ------------------------------------------------------------------------------------------------|
B ------------------------------------------------------------------------------------------------|
G ------------------------8-----------------------5-----------------------------------------------|
D 5-----------------------8-----------------------5-----------------------------------8-----------|
A 5-----------------------6-----6--6--6--6--6--6--3-----3--3--3--3--3--3--3--3--3--3--8-----------|
E 3-----3--3--3--3--3--3--------------------------------------------------------------6-----6--6--|
  o-----m--m--m--m--m--m--o-----m--m--m--m--m--m--o-----m--m--m--m--m--m--m--m--m--m--o-----m--m--|

  0:14
E ------------------------------------------------------------------------------------------------|
B ------------------------------------------------------------------------------------------------|
G 5-----------------------------------------------------------------------------------------------|
D 5-----------------------8-----------------------5-----------------------------------------------|
A 3-----3--3--3--3--3--3--8-----------------------5-----------------------------------------------|
E ------------------------6-----6--6--6--6--6--6--3-----3--3--3--3--3--3--3--3--3--3--3--3--3--3--|
  o-----m--m--m--m--m--m--o-----m--m--m--m--m--m--o-----m--m--m--m--m--m--m--m--m--m--m--m--m--m--|

  0:16
E ------------------------------------------------------------------------------------------------|
B ------------------------------------------------------------------------------------------------|
G ------------------------5-----5-----8-----8-----------------------------5-----5-----8-----8-----|
D 5-----5-----8-----8-----5-----5-----8-----8-----5-----5-----8-----8-----5-----5-----8-----8-----|
A 5-----5-----8-----8-----3-----3-----6-----6-----5-----5-----8-----8-----3-----3-----6-----6-----|
E 3-----3-----6-----6-----------------------------3-----3-----6-----6-----------------------------|
  m-----m-----m-----m-----m-----m-----m-----m-----m-----m-----m-----m-----m-----m-----m-----m-----|

  0:19
E ------------------------------------------------------------------------------------------------|
B ------------------------------------------------------------------------------------------------|
G ------------------------------------------------------------------------------------------------|
D 5-----5-----------5-----------5-----3-----------5-----5-----------------------------------------|
A 5-----5-----------5-----------5-----3-----------5-----5-----------------------------------------|
E 3-----3-----------3-----------3-----1-----------3-----3-----------------------------------------|
  o-----o-----------o-----------o-----o-----------o-----o-----------------------------------------|

  0:22
E ------------------------------------------------------------------------------------------------|
B ------------------------------------------------------------------------------------------------|
G -----------------------------------5------------------------------------------------------------|
D 8-----8-----------8-----------8----5------------5-----5-----------------------------------------|
A 8-----8-----------8-----------8----3------------5-----5-----------------------------------------|
E 6-----6-----------6-----------6-----------------3-----3-----------------------------------------|
  o-----o-----------o-----------o-----------------o-----o-----------------------------------------|

  0:25
E ------------------------------------------------------------------------------------------------|
B ------------------------------------------------------------------------------------------------|
G ------------------------------------------------------------------------------------------------|
D 5-----5-----------5-----------5-----3-----------5-----5-----------------------------------------|
A 5-----5-----------5-----------5-----3-----------5-----5-----------------------------------------|
E 3-----3-----------3-----------3-----1-----------3-----3-----------------------------------------|
  o-----o-----------o-----------o-----o-----------o-----o-----------------------------------------|

  0:28
E ------------------------------------------------------------------------------------------------|
B ------------------------------------------------------------------------------------------------|
G -----------------------------------5------------------------------------------------------------|
D 8-----8-----------8-----------8----5------------5-----5-----------------------------------------|
A 8-----8-----------8-----------8----3------------5-----5-----------------------------------------|
E 6-----6-----------6-----------6-----------------3-----3-----------------------------------------|
  o-----o-----------o-----------o-----------------o-----o-----------------------------------------|

  0:31
E ------------------------------------------------------------------------------------------------|
B ------------------------------------------------------------------------------------------------|
G ------------------------8-----------------------5-----------------------------------------------|
D 5-----------------------8-----------------------5-----------------------------------8-----------|
A 5-----------------------6-----6--6--6--6--6--6--3-----3--3--3--3--3--3--3--3--3--3--8-----------|
E 3-----3--3--3--3--3--3--------------------------------------------------------------6-----6--6--|
  o-----m--m--m--m--m--m--o-----m--m--m--m--m--m--o-----m--m--m--m--m--m--m--m--m--m--o-----m--m--|

  0:33
E ------------------------------------------------------------------------------------------------|
B ------------------------------------------------------------------------------------------------|
G 7-----7--7--------5-----7-----7--7--------5-----7-----7--7--------5-----7-----8-----7-----5-----|
D x-----x--x--------x-----x-----x--x--------x-----x-----x--x--------x-----x-----x-----x-----x-----|
A 5-----5--5--------3-----5-----5--5--------3-----5-----5--5--------3-----5-----6-----5-----3-----|
E ------------------------------------------------------------------------------------------------|
  o--o--o--o--o--o--o--o--o--o--o--o--o--o--o--o--o--o--o--o--o--o--o--o--o--o--o--o--o--o--o--o--|

  0:36
E ------------------------------------------------------------------------------------------------|
B ------------------------------------------------------------------------------------------------|
G ------------------------8-----------------------5-----------------------------------------------|
D 5-----------------------8-----------------------5-----------------------------------8-----------|
A 5-----------------------6-----6--6--6--6--6--6--3-----3--3--3--3--3--3--3--3--3--3--8-----------|
E 3-----3--3--3--3--3--3--------------------------------------------------------------6-----6--6--|
  o-----m--m--m--m--m--m--o-----m--m--m--m--m--m--o-----m--m--m--m--m--m--m--m--m--m--o-----m--m--|

  0:39
E ------------------------------------------------------------------------------------------------|
B ------------------------------------------------------------------------------------------------|
G 7-----7--7--------5-----7-----7--7--------5-----7-----7--7--------5-----7-----8-----7-----5-----|
D x-----x--x--------x-----x-----x--x--------x-----x-----x--x--------x-----x-----x-----x-----x-----|
A 5-----5--5--------3-----5-----5--5--------3-----5-----5--5--------3-----5-----6-----5-----3-----|
E ------------------------------------------------------------------------------------------------|
  o--o--o--o--o--o--o--o--o--o--o--o--o--o--o--o--o--o--o--o--o--o--o--o--o--o--o--o--o--o--o--o--|

  0:42
E ------------------------------------------------------------------------------------------------|
B ------------------------------------------------------------------------------------------------|
G ------------------------5-----5-----8-----8-----------------------------------------------------|
D 5-----5-----8-----8-----5-----5-----8-----8-----5-----5-----8-----8-----------------------------|
A 5-----5-----8-----8-----3-----3-----6-----6-----5-----5-----8-----8-----------------------------|
E 3-----3-----6-----6-----------------------------3-----3-----6-----6-----------------------------|
  m-----m-----m-----m-----m-----m-----m-----m-----m-----m-----m-----m-----------------------------|

  0:45
E ------------------------------------------------------------------------------------------------|
B ------------------------------------------------------------------------------------------------|
G ------------------------5-----5-----8-----8-----------------------------5-----5-----8-----8-----|
D 5-----5-----8-----8-----5-----5-----8-----8-----5-----5-----8-----8-----5-----5-----8-----8-----|
A 5-----5-----8-----8-----3-----3-----6-----6-----5-----5-----8-----8-----3-----3-----6-----6-----|
E 3-----3-----6-----6-----------------------------3-----3-----6-----6-----------------------------|
  m-----m-----m-----m-----m-----m-----m-----m-----m-----m-----m-----m-----m-----m-----m-----m-----|

  0:47
E ------------------------------------------------------------------------------------------------|
B ------------------------------------------------------------------------------------------------|
G ------------------------------------------------------------------------------------------------|
D ------------5-----------------------------------------------------------------------------------|
A ------5-----------------------------------------------5-----------5-----------8-----------8-----|
E 3-----------------------------------------------6-----------------------6-----------------------|
  o-----o-----o-----------------------------------o-----o-----------o-----o-----o-----------o-----|

  0:50
E ------------------------------------------------------------------------------------------------|
B ------------------------------------------------------------------------------------------------|
G ------------8-----------------------------------------------5-----------------------8-----------|
D ------8-----------------------------------------------5-----------------------8-----------------|
A 6-----------------------------------------------3-----------------------6-----------------------|
E ------------------------------------------------------------------------------------------------|
  o-----o-----o-----------------------------------o-----o-----o-----------o-----o-----o-----------|

  0:53
E ------------------------------------------------------------------------------------------------|
B ------------------------------------------------------------------------------------------------|
G ------------------------------------------------------------------------------------------------|
D ------------5-----------------------------------------------------------------------------------|
A ------5-----------------------------------------------5-----------5-----------8-----------8-----|
E 3-----------------------------------------------6-----------------------6-----------------------|
  o-----o-----o-----------------------------------o-----o-----------o-----o-----o-----------o-----|

  0:56
E ------------------------------------------------------------------------------------------------|
B ------------------------------------------------------------------------------------------------|
G ------------8-----------------------------------------------5-----------------------8-----------|
D ------8-----------------------------------------------5-----------------------8-----------------|
A 6-----------------------------------------------3-----------------------6-----------------------|
E ------------------------------------------------------------------------------------------------|
  o-----o-----o-----------------------------------o-----o-----o-----------o-----o-----o-----------|

  0:59
E ------------------------------------------------------------------------------------------------|
B ------------------------------------------------------------------------------------------------|
G ------------------------------------------------------------------------------------------------|
D ------------------------------------------------------------------------------------------------|
A ------------------------------------------------------------------------------------------------|
E ------------------------------------------------------------------------------------------------|
  ------------------------------------------------------------------------------------------------|

  1:02
E ------------------------------------------------------------------------------------------------|
B ------------------------------------------------------------------------------------------------|
G ------------------------------------------------------------------------------------------------|
D 5-----5-----5-----5-----5-----5-----5-----5-----5-----5-----5-----5-----5-----5-----5-----5-----|
A 5-----5-----5-----5-----5-----5-----5-----5-----5-----5-----5-----5-----5-----5-----5-----5-----|
E 3-----3-----3-----3-----3-----3-----3-----3-----3-----3-----3-----3-----3-----3-----3-----3-----|
  o-----o-----o-----o-----o-----o-----o-----o-----o-----o-----o-----o-----o-----o-----o-----o-----|

  1:04
E ------------------------------------------------------------------------------------------------|
B ------------------------------------------------------------------------------------------------|
G ------------------------------------------------------------------------------------------------|
D 5-----5-----5-----5-----5-----5-----5-----5-----5-----5-----5-----5-----5-----5-----5-----5-----|
A 5-----5-----5-----5-----5-----5-----5-----5-----5-----5-----5-----5-----5-----5-----5-----5-----|
E 3-----3-----3-----3-----3-----3-----3-----3-----3-----3-----3-----3-----3-----3-----3-----3-----|
  o-----o-----o-----o-----o-----o-----o-----o-----o-----o-----o-----o-----o-----o-----o-----o-----|

  1:07
E ------------------------------------------------------------------------------------------------|
B ------------------------------------------------------------------------------------------------|
G ------------------------------------------------------------------------------------------------|
D 5-----5-----5-----5-----5-----5-----5-----5-----5-----5-----5-----5-----5-----5-----5-----5-----|
A 5-----5-----5-----5-----5-----5-----5-----5-----5-----5-----5-----5-----5-----5-----5-----5-----|
E 3-----3-----3-----3-----3-----3-----3-----3-----3-----3-----3-----3-----3-----3-----3-----3-----|
  o-----o-----o-----o-----o-----o-----o-----o-----o-----o-----o-----o-----o-----o-----o-----o-----|

  1:10
E ------------------------------------------------------------------------------------------------|
B ------------------------------------------------------------------------------------------------|
G ------------------------8-----------------------5-----------------------------------------------|
D 5-----------------------8-----------------------5-----------------------------------8-----------|
A 5-----------------------6-----6--6--6--6--6--6--3-----3--3--3--3--3--3--3--3--3--3--8-----------|
E 3-----3--3--3--3--3--3--------------------------------------------------------------6-----6--6--|
  o-----m--m--m--m--m--m--o-----m--m--m--m--m--m--o-----m--m--m--m--m--m--m--m--m--m--o-----m--m--|

  1:13
E ------------------------------------------------------------------------------------------------|
B ------------------------------------------------------------------------------------------------|
G 5-----------------------------------------------------------------------------------------------|
D 5-----------------------------------------------------------------------------------------------|
A 3-----3--3--3--3--3--3--------------------------------------------------------------------------|
E ------------------------------------------------------------------------------------------------|
  o-----m--m--m--m--m--m--------------------------------------------------------------------------|

  1:16
E ------------------------------------------------------------------------------------------------|
B ------------------------------------------------------------------------------------------------|
G ------------------------8-----------------------5-----------------------------------------------|
D 5-----------------------8-----------------------5-----------------------------------8-----------|
A 5-----------------------6-----6--6--6--6--6--6--3-----3--3--3--3--3--3--3--3--3--3--8-----------|
E 3-----3--3--3--3--3--3--------------------------------------------------------------6-----6--6--|
  o-----m--m--m--m--m--m--o-----m--m--m--m--m--m--o-----m--m--m--m--m--m--m--m--m--m--o-----m--m--|

  1:19
E ------------------------------------------------------------------------------------------------|
B ------------------------------------------------------------------------------------------------|
G 5-----------------------------------------------------------------------------------------------|
D 5-----------------------8-----------------------5-----------------------------------------------|
A 3-----3--3--3--3--3--3--8-----------------------5-----------------------------------------------|
E ------------------------6-----6--6--6--6--6--6--3-----3--3--3--3--3--3--3--3--3--3--3--3--3--3--|
  o-----m--m--m--m--m--m--o-----m--m--m--m--m--m--o-----m--m--m--m--m--m--m--m--m--m--m--m--m--m--|

  1:21
E ------------------------------------------------------------------------------------------------|
B ------------------------------------------------------------------------------------------------|
G ------------------------5-----5-----8-----8-----------------------------5-----5-----8-----8-----|
D 5-----5-----8-----8-----5-----5-----8-----8-----5-----5-----8-----8-----5-----5-----8-----8-----|
A 5-----5-----8-----8-----3-----3-----6-----6-----5-----5-----8-----8-----3-----3-----6-----6-----|
E 3-----3-----6-----6-----------------------------3-----3-----6-----6-----------------------------|
  o-----o-----o-----o-----o-----o-----o-----o-----o-----o-----o-----o-----o-----o-----o-----o-----|

  1:24
E ------------------------------------------------------------------------|
B ------------------------------------------------------------------------|
G ------------------------------------------------------------------------|
D 5-----------------------------------------------------------------------|
A 5-----------------------------------------------------------------------|
E 3-----------------------------------------------------------------------|
  o-----------------------------------------------------------------------|



==================================================================================

Bass Tabs
==================================================================================

  0:00
G ------------------------------------------------------------------------------------------------|
D ------------------------------------------------------------------------------------------------|
A ------------------------6-----6--6--6--6--6--6--3-----3--3--3--3--3--3--3--3--3--3--------------|
E 3-----3--3--3--3--3--3--------------------------------------------------------------6-----6--6--|

  0:02
G ------------------------------------------------------------------------------------------------|
D ------------------------------------------------------------------------------------------------|
A 3-----3--3--3--3--3--3--------------------------------------------------------------------------|
E ------------------------6-----6--6--6--6--6--6--3-----3--3--3--3--3--3--3--3--3--3--3--3--3--3--|

  0:05
G ------------------------------------------------------------------------------------------------|
D ------------------------------------------------------------------------------------------------|
A ------------------------6-----6--6--6--6--6--6--3-----3--3--3--3--3--3--3--3--3--3--------------|
E 3-----3--3--3--3--3--3--------------------------------------------------------------6-----6--6--|

  0:08
G ------------------------------------------------------------------------------------------------|
D ------------------------------------------------------------------------------------------------|
A 3-----3--3--3--3--3--3--------------------------------------------------------------------------|
E ------------------------6-----6--6--6--6--6--6--3-----3--3--3--3--3--3--3--3--3--3--3--3--3--3--|

  0:11
G ------------------------------------------------------------------------------------------------|
D ------------------------------------------------------------------------------------------------|
A ------------------------6-----6--6--6--6--6--6--3-----3--3--3--3--3--3--3--3--3--3--------------|
E 3-----3--3--3--3--3--3--------------------------------------------------------------6-----6--6--|

  0:14
G ------------------------------------------------------------------------------------------------|
D ------------------------------------------------------------------------------------------------|
A 3-----3--3--3--3--3--3--------------------------------------------------------------------------|
E ------------------------6-----6--6--6--6--6--6--3-----3--3--3--3--3--3--3--3--3--3--3--3--3--3--|

  0:16
G ------------------------------------------------------------------------------------------------|
D ------------------------------------------------------------------------------------------------|
A ------------------------3-----3-----6-----6-----------------------------3-----3-----6-----6-----|
E 3-----3-----6-----6-----------------------------3-----3-----6-----6-----------------------------|

  0:19
G ------------------------------------------------------------------------------------------------|
D ------------------------------------------------------------------------------------------------|
A ------------------------6-----6--6--6--6--6--6--3-----3--3--3--3--3--3--3--3--3--3--------------|
E 3-----3--3--3--3--3--3--------------------------------------------------------------6-----6--6--|

  0:22
G ------------------------------------------------------------------------------------------------|
D ------------------------------------------------------------------------------------------------|
A 3-----3--3--3--3--3--3--------------------------------------------------------------------------|
E ------------------------6-----6--6--6--6--6--6--3-----3--3--3--3--3--3--3--3--3--3--3--3--3--3--|

  0:25
G ------------------------------------------------------------------------------------------------|
D ------------------------------------------------------------------------------------------------|
A ------------------------6-----6--6--6--6--6--6--3-----3--3--3--3--3--3--3--3--3--3--------------|
E 3-----3--3--3--3--3--3--------------------------------------------------------------6-----6--6--|

  0:28
G ------------------------------------------------------------------------------------------------|
D ------------------------------------------------------------------------------------------------|
A 3-----3--3--3--3--3--3--------------------------------------------------------------------------|
E ------------------------6-----6--6--6--6--6--6--3-----3--3--3--3--3--3--3--3--3--3--3--3--3--3--|

  0:31
G ------------------------------------------------------------------------------------------------|
D ------------------------------------------------------------------------------------------------|
A ------------------------6-----6--6--6--6--6--6--3-----3--3--3--3--3--3--3--3--3--3--------------|
E 3-----3--3--3--3--3--3--------------------------------------------------------------6-----6--6--|

  0:33
G ------------------------------------------------------------------------------------------------|
D ------------------------------------------------------------------------------------------------|
A 3-----3--3--3--3--3--3--------------------------------------------------------------------------|
E ------------------------6-----6--6--6--6--6--6--3-----3--3--3--3--3--3--3--3--3--3--3--3--3--3--|

  0:36
G ------------------------------------------------------------------------------------------------|
D ------------------------------------------------------------------------------------------------|
A ------------------------6-----6--6--6--6--6--6--3-----3--3--3--3--3--3--3--3--3--3--------------|
E 3-----3--3--3--3--3--3--------------------------------------------------------------6-----6--6--|

  0:39
G ------------------------------------------------------------------------------------------------|
D ------------------------------------------------------------------------------------------------|
A 3-----3--3--3--3--3--3--------------------------------------------------------------------------|
E ------------------------6-----6--6--6--6--6--6--3-----3--3--3--3--3--3--3--3--3--3--3--3--3--3--|

  0:42
G ------------------------------------------------------------------------------------------------|
D ------------------------------------------------------------------------------------------------|
A ------------------------3-----3-----6-----6-----------------------------3-----3-----6-----6-----|
E 3-----3-----6-----6-----------------------------3-----3-----6-----6-----------------------------|

  0:45
G ------------------------------------------------------------------------------------------------|
D ------------------------------------------------------------------------------------------------|
A ------------------------3-----3-----6-----6-----------------------------3-----3-----6-----6-----|
E 3-----3-----6-----6-----------------------------3-----3-----6-----6-----------------------------|

  0:47
G ------------------------------------------------------------------------------------------------|
D ------------------------------------------------------------------------------------------------|
A ------------------------------------------------------------------------------------------------|
E 3-----3-----3-----3-----3-----3-----3-----3-----3-----3-----3-----3-----3-----3-----3-----3-----|

  0:50
G ------------------------------------------------------------------------------------------------|
D ------------------------------------------------------------------------------------------------|
A ------------------------------------------------------------------------------------------------|
E 3-----3-----3-----3-----3-----3-----3-----3-----3-----3-----3-----3-----3-----3-----3-----3-----|

  0:53
G ------------------------------------------------------------------------------------------------|
D ------------------------------------------------------------------------------------------------|
A ------------------------------------------------------------------------------------------------|
E 3-----3-----3-----3-----3-----3-----3-----3-----3-----3-----3-----3-----3-----3-----3-----3-----|

  0:56
G ------------------------------------------------------------------------------------------------|
D ------------------------------------------------------------------------------------------------|
A ------------------------------------------------------------------------------------------------|
E 3-----3-----3-----3-----3-----3-----3-----3-----3-----3-----3-----3-----3-----3-----3-----3-----|

  0:59
G ------------------------------------------------------------------------------------------------|
D ------------------------------------------------------------------------------------------------|
A ------------------------------------------------------------------------------------------------|
E 3-----3-----3-----3-----3-----3-----3-----3-----3-----3-----3-----3-----3-----3-----3-----3-----|

  1:02
G ------------------------------------------------------------------------------------------------|
D ------------------------------------------------------------------------------------------------|
A ------------------------------------------------------------------------------------------------|
E 3-----3-----3-----3-----3-----3-----3-----3-----3-----3-----3-----3-----3-----3-----3-----3-----|

  1:04
G ------------------------------------------------------------------------------------------------|
D ------------------------------------------------------------------------------------------------|
A ------------------------------------------------------------------------------------------------|
E 3-----3-----3-----3-----3-----3-----3-----3-----3-----3-----3-----3-----3-----3-----3-----3-----|

  1:07
G ------------------------------------------------------------------------------------------------|
D ------------------------------------------------------------------------------------------------|
A ------------------------------------------------------------------------------------------------|
E 3-----3-----3-----3-----3-----3-----3-----3-----3-----3-----3-----3-----3-----3-----3-----3-----|

  1:10
G ------------------------------------------------------------------------------------------------|
D ------------------------------------------------------------------------------------------------|
A ------------------------6-----6--6--6--6--6--6--3-----3--3--3--3--3--3--3--3--3--3--------------|
E 3-----3--3--3--3--3--3--------------------------------------------------------------6-----6--6--|

  1:13
G ------------------------------------------------------------------------------------------------|
D ------------------------------------------------------------------------------------------------|
A 3-----3--3--3--3--3--3--------------------------------------------------------------------------|
E ------------------------6-----6--6--6--6--6--6--3-----3--3--3--3--3--3--3--3--3--3--3--3--3--3--|

  1:16
G ------------------------------------------------------------------------------------------------|
D ------------------------------------------------------------------------------------------------|
A ------------------------6-----6--6--6--6--6--6--3-----3--3--3--3--3--3--3--3--3--3--------------|
E 3-----3--3--3--3--3--3--------------------------------------------------------------6-----6--6--|

  1:19
G ------------------------------------------------------------------------------------------------|
D ------------------------------------------------------------------------------------------------|
A 3-----3--3--3--3--3--3--------------------------------------------------------------------------|
E ------------------------6-----6--6--6--6--6--6--3-----3--3--3--3--3--3--3--3--3--3--3--3--3--3--|

  1:21
G ------------------------------------------------------------------------------------------------|
D ------------------------------------------------------------------------------------------------|
A 10----10----------------3-----3-----6-----6-----10----10----------------3-----3-----6-----6-----|
E ------------6-----6-----------------------------------------6-----6-----------------------------|

  1:24
G ------------------------------------------------------------------------|
D ------------------------------------------------------------------------|
A ------------------------------------------------------------------------|
E 3-----------------------------------------------------------------------|



==================================================================================

Drum Help
==================================================================================

B = Bass Drum
S = Snare
H = Hi-hat
C = Crash
R = Ride
HT = High Tom
MT = Medium Tom
FT = Floor Tom
For the crash and hihat, x means closed and o means open.
When using stick hits, they will be represented by a s.

==================================================================================

Drum Tabs
==================================================================================

  0:00
B ----------------------------------------------------------------|
S ----------------------------------------------------------------|
H ----------------------------------------------------------------|
C ----------------------------------------------------------------|
R ----------------------------------------------------------------|
HT----------------------------------------------------------------|
MT----------------------------------------------------------------|
FT----------------------------------------------------------------|

  0:05
B x---xx--x---xx--x---xx--x---xx--x---xx--x---xx--x---xx--x---x---|
S --x---x---x---x---x---x---x---x---x---x---x---x---x---x-xXxXxXx-|
H --o---o---o---o---o---o---o---o---o---o---o---o---o---o---------|
C o-------------------------------------------------------o-------|
R ----------------------------------------------------------------|
HT----------------------------------------------------------------|
MT----------------------------------------------------------------|
FT----------------------------------------------------------------|

  0:11
B x---xx--x---xx--x---xx--x---xx--x---xx--x---xx--x---xx--x---x---|
S -x---x---x---x---x---x---x---x---x---x---x---x---x---x-xXxXxXxx-|
H --o---o---o---o---o---o---o---o---o---o---o---o---o---o---------|
C o-------------------------------------------------------o-------|
R ----------------------------------------------------------------|
HT----------------------------------------------------------------|
MT----------------------------------------------------------------|
FT----------------------------------------------------------------|

  0:16
B x---x---x---x---x-x-x-x-x-x-x-x-x---xx--x---xx--x---xx--x---xx--|
S --x---x---x---x-x-x-x-xXxXxXxx--x---x---x---x---x---x---x---x---|
H ----------------------------------------------------------------|
C --------------------------------o-------------------------------|
R ----------------------------------------------------------------|
HT----------------------------------------------------------------|
MT----------------------------------------------------------------|
FTx---x---x---x---x-x-x-x-----------x---x---x---x---x---x---x---x-|

  0:22
B x---xx--x---xx--x---xx--x---x---x---xx--x---xx--x---xx--x---xx--|
S x---x---x---x---x---x---x-xXxx--x---x---x---x---x---x---x---x---|
H ----------------------------------------------------------------|
C --------------------------------o-------------------------------|
R ----------------------------------------------------------------|
HT----------------------------------------------------------------|
MT----------------------------------------------------------------|
FT--x---x---x---x---x---x---x-------x---x---x---x---x---x---x---x-|

  0:28
B x---xx--x---xx--x---xx--x---x---x---xx--x---xx--x---xx--x---xx--|
S x---x---x---x---x---x---x-xXxx--x---x---x---x---x---x---x---x---|
H ----------------------------------o---o---o---o---o---o---o---o-|
C --------------------------------o-------------------------------|
R ----------------------------------------------------------------|
HT----------------------------------------------------------------|
MT----------------------------------------------------------------|
FT--x---x---x---x---x---x---x-------------------------------------|

  0:33
B x---xx--x---xx--x---xx--x---x---x---xx--x---xx--x---xx--x---xx---|
S x---x---x---x---x---x-xXxXxXx--x---x---x---x---x---x---x---x---x-|
H --o---o---o---o---o---o-----------o---o---o---o---o---o---o---o--|
C ------------------------o-------o--------------------------------|
R -----------------------------------------------------------------|
HT-----------------------------------------------------------------|
MT-----------------------------------------------------------------|
FT-----------------------------------------------------------------|

  0:39
B x---xx--x---xx--x---xx--x---x-----xx--x---xx--x---xx--x---xx-----|
S ---x---x---x---x---x-xXxXxXxx---x---x---x---x---x---x-------x----|
H --o---o---o---o---o---o------------------------------------------|
C ------------------------o-------o--------------------------------|
R -----------------------------------------------------------------|
HT------------------------------------------------------------xx---|
MT--------------------------------------------------------------xx-|
FT------------------------------------x---x---x---x---x---x--------|

  0:45
B --xx--x---xx--x---xx--x---xx----x-x-------x-----x-x-------x-----|
S x---x---x---x---x---x-------------x-----x---------x-----x-------|
H ------------------------------------o---o---o---o---o---o---o---|
C o-------------------------------o-------------------------------|
R ----------------------------------------------------------------|
HT----------------------------xx----------------------------------|
MT------------------------------xx--------------------------------|
FT----x---x---x---x---x---x---------------------------------------|

  0:50
B x-x-------x-----x-x-------x-----x-x-------x-----x-x-------x-----|
S --x-----x---------x-----x-x-------x-----x---------x-----x-------|
H o---o---o---o---o---o---o---o-------o---o---o---o---o---o---o---|
C --------------------------------o-------------------------------|
R ----------------------------------------------------------------|
HT----------------------------------------------------------------|
MT----------------------------------------------------------------|
FT----------------------------------------------------------------|

  0:56
B x-x-------x-----x-x-------x-------xx--x---xx--x---xx--x---xx-----|
S --x-----x---------x-----x-x-x---x---x---x---x---x---x-------x----|
H o---o---o---o---o---o---o---o------------------------------------|
C --------------------------------o--------------------------------|
R -----------------------------------------------------------------|
HT------------------------------------------------------------xx---|
MT--------------------------------------------------------------xx-|
FT------------------------------------x---x---x---x---x---x--------|

  1:02
B --xx--x---xx--x---xx--x---xx------xx--x---xx--x---xx--x---xx----|
S x---x---x---x---x---x-------x---x---x---x---x---x---x---xXxXx---|
H ------------------------------------o---o---o---o---o---o-------|
C o-------------------------------o-------------------------------|
R ----------------------------------------------------------------|
HT----------------------------xx----------------------------------|
MT------------------------------xx--------------------------------|
FT----x---x---x---x---x---x---------------------------------------|

  1:07
B --xx--x---xx--x---xx--x---xx----x---xx--x---xx--x---xx--x---xx--|
S x---x---x---x---x---x---xXxx--x---x---x---x---x---x---x---x---x-|
H ----o---o---o---o---o---o---------o---o---o---o---o---o---o---o-|
C o-------------------------------o-------------------------------|
R ----------------------------------------------------------------|
HT----------------------------------------------------------------|
MT----------------------------------------------------------------|
FT----------------------------------------------------------------|

  1:13
B x---xx--x---xx--x---xx--x---x---x---xx--x---xx--x---xx--x---xx--|
S --x---x---x---x---x-xXxXxXx--x---x---x---x---x---x---x---x---x--|
H --o---o---o---o---o---o-----------o---o---o---o---o---o---o---o-|
C ------------------------o-------o-------------------------------|
R ----------------------------------------------------------------|
HT----------------------------------------------------------------|
MT----------------------------------------------------------------|
FT----------------------------------------------------------------|

  1:19
B x---xx--x---xx--x---xx--x---x-----xx--x---xx--x---xx--x---xx-----|
S -x---x---x---x---x-xXxXxXxx---x---x---x---x---x---x-------x------|
H --o---o---o---o---o---o------------------------------------------|
C ------------------------o-------o--------------------------------|
R -----------------------------------------------------------------|
HT------------------------------------------------------------xx---|
MT--------------------------------------------------------------xx-|
FT------------------------------------x---x---x---x---x---x--------|

  1:24
B x------------------------|
S -------------------------|
H -------------------------|
C o------------------------|
R -------------------------|
HT-------------------------|
MT-------------------------|
FT-------------------------|
Tap to rate this tab
 
# A B C D E F G H I J K L M N O P Q R S T U V W X Y Z