Song name
# A B C D E F G H I J K L M N O P Q R S T U V W X Y Z

Misc Unsigned Bands - Void Walkers - Rebirth tab

(/) Slide Up  (\) Slide Down  (h) Hammer On  (p) Pull Off  (b) Bend (r) Release (v) 
Vibrato (*) let ring

riff 1

e|-----------------------------------------------------------------|
B|-----------------------------------------------------------------|
G|-----------------------------------------------------------------|
D|--0-0-7-0-0-5-0-0-3-0-0-2-0-0-2h3-0-0-7-0-0-5-0-0-10-0-0-8-0-0-7-|
A|--0-0-7-0-0-5-0-0-3-0-0-2-0-0-2h3-0-0-7-0-0-5-0-0-10-0-0-8-0-0-7-|
E|-----------------------------------------------------------------|

e|-----------------------------------------------------------|
B|-----------------------------------------------------------|
G|-----------------------------------------------------------|
D|-0-0-7-0-0-5-0-0-3-0-0-2-0-0-2h3-0-0-7-0-0-5-0-0-3*-2*-3p2-|
A|-0-0-7-0-0-5-0-0-3-0-0-2-0-0-2h3-0-0-7-0-0-5-0-0-3*-2*-3p2-|
E|-----------------------------------------------------------|






riff 2
e|-----------------------------------------------------------------|
B|-----------------------------------------------------------------|
G|-----------------------------------------------------------------|
D|--0-0-2-0-0-3-0-0-5-0-0-3-0-0-2*-0-0-2-0-0-3-0-0-5-0-0-3-0-0-2h3-|
A|--0-0-2-0-0-3-0-0-5-0-0-3-0-0-2*-0-0-2-0-0-3-0-0-5-0-0-3-0-0-2h3-|
E|-----------------------------------------------------------------|

e|----------------------------------------------------------------|
B|----------------------------------------------------------------|
G|----------------------------------------------------------------|
D|-0-0-2-0-0-3-0-0-5-0-0-3-0-0-2*-0-0-2-0-0-3-0-0-5-0-0-3-0-0-2h3-|
A|-0-0-2-0-0-3-0-0-5-0-0-3-0-0-2*-0-0-2-0-0-3-0-0-5-0-0-3-0-0-2h3-|
E|----------------------------------------------------------------|





riff 3
e|------------------------------------------------------------------|
B|------------------------------------------------------------------|
G|------------------------------------------------------------------|
D|--0-0-5-0-0-3-0-0-2-0-0-2-0-0-2h3-0-0-5-0-0-3-0-0-2-0-0-2-0-0-2h3-|
A|--0-0-5-0-0-3-0-0-2-0-0-2-0-0-2h3-0-0-5-0-0-3-0-0-2-0-0-2-0-0-2h3-|
E|------------------------------------------------------------------|


Rebirth :D
transition:
 riff 1 - 4x
 riff 2
 riff 1 - 4x
 riff 2
 riff 3 - 2x
 riff 1 - 4x XD
Tap to rate this tab
# A B C D E F G H I J K L M N O P Q R S T U V W X Y Z