Song name
# A B C D E F G H I J K L M N O P Q R S T U V W X Y Z

Misc Unsigned Bands - The Plasmas - Finally The Cult Is Earthbound tab

Tabbed by: xxThreeCheersxx
Tuning:Standard

NOTE: I know this tab isn't perfect, but I haven't seen a tab for this song
before and it's one of my favorites, so I gave it my best shot.  
A couple parts are off but it works pretty well.  
So if you have any corrections/suggestions let me know and I'll fix them. 
Happy playing!

KEY:
~ Let ring
(#) Quietly/Ghost note
/ Slide
. Palm mute

Intro, transcribed for guitar
e|----------------7-9-10-9-5~---5-7-9-5-2~---(0-2)--3-5-3-2-5~--------------|
B|-----7--------------------------------------------------------------------|
G|-7-9---7------------------------------------------------------------------|
D|----------9~--------------------------------------------------------------|
A|--------------------------------------------------------------------------|
E|--------------------------------------------------------------------------|

                            Very iffy right here
                      -------------------------------------
                      |                                   | 
e|--3---5---7---9------3-5-2-5-0-5-2-5---3-5-0-2-3--(2-5)-------------------|
B|----3---5---7---10--------------------------------------------------------|
G|--------------------------------------------------------------------------|
D|--------------------------------------------------------------------------|
A|--------------------------------------------------------------------------|
E|--------------------------------------------------------------------------|

Guitar comes in; the intro is repeated over top of it
    G5        B5        D5        A5        B5        D5 
e|-------------------------------------------------------|
B|-------------------------------------------------------|
G|----------------------7-777777----------------------7~-|
D|--5-555555--9-999999--7-777777--7-777777--9-999999--7~-|
A|--5-555555--9-999999--5-555555--7-777777--9-999999--5~-|
E|--3-333333--7-777777------------5-555555--7-777777-----|
      ......    ......    ......    ......    ......
   G5        A5
e|----------------------|
B|----------------------|
G|----------------------|
D|-5-555555--7~---5/7\4-|
A|-5-555555--7~---------|
E|-3-333333--5~---------|
     ......

(I didn't put the number of times to strum in for the next couple parts; 
It's not that hard to figure out)
  G5  A5 B5 C#5
e|-------------|
B|-------------|
G|----------6--|
D|-5--7--9--6--|
A|-5--7--9--4--|
E|-3--5--7-----|

   B5  G5  A5  F#5    G5  A5
e|---------------------------|
B|---------------------------|
G|---------------------------|
D|-9---5---7---4------5---7--|
A|-9---5---7---4------5---7--|
E|-7---3---5---2------3---5--|

Then a second guitar comes in and repeats the intro, and it fades out.

Remember if you have any corrections let me know.  Thanks ahead of time and have fun playing.

Tap to rate this tab
# A B C D E F G H I J K L M N O P Q R S T U V W X Y Z