Song name
# A B C D E F G H I J K L M N O P Q R S T U V W X Y Z

Misc Unsigned Bands - Chris Tobin - Home tab

Standard Tuning

Chords used          A     G

E    2    2    3     0     3
B    3    2    5     2     3
G    4    3    4     2     4
D    4    4    2     2     5
A    2    4    x     0     5
E    x    2    x     x     3
               ^
               |
               --The D string here is a bit of a stretch you can play the bottom three 
strings instead sounds about the same

Bar Chords

E-------2-------2-----2------2------2--------2---------2--------2--------|
B-------3-------3-----3------3------2--------2---------2--------2--------|
G-------4-------4-----4------4------3--------3---------3--------3--------|
D-----------4-------------4---------4--------4---------4--------4--------|
A----2-------------2---------------------4------------------4------------|
E--------------------------------2----------------2----------------------|


E-------2-------2-----2------2------2--------2---------2--------2--------|
B-------3-------3-----3------3------2--------2---------2--------2--------|
G-------4-------4-----4------4------3--------3---------3--------3--------|
D-----------4-------------4---------4--------4---------4--------4--------|
A----2-------------2---------------------4------------------4------------|
E--------------------------------2----------------2----------------------|


E-------2-------2-----2------2------3--------3---------3--------3--------|
B-------3-------3-----3------3------5--------5---------5--------5--------|
G-------4-------4-----4------4------4--------4---------4--------4--------|
D-----------4-------------4----- 2-------2--------2---------2------------|
A----2-------------2-----------------------------------------------------|
E------------------------------------------------------------------------|


E-------2-------2-----2-------2------2--------2----2--------------------|
B-------3-------3-----2-------2------3--------3----3--------------------|
G-------4-------4-----3-------3------4--------4----4--------------------|
D-----------4---------4-------4-----------4--------4--------------------|
A----2--------------------4--------2---------------2--------------------|
E------------------2----------------------------------------------------|

Chorus

E--2-2-2---0-0-0---3-3-3---2-2-2---2-2-2---0-0-0---3-3-3---2-2-2-|
B--3-3-3---2-2-2---3-3-3---2-2-2---3-3-3---2-2-2---3-3-3---2-2-2-|
G--4-4-4---2-2-2---4-4-4---3-3-3---4-4-4---2-2-2---4-4-4---3-3-3-|
D--4-4-4---2-2-2---5-5-5---4-4-4---4-4-4---2-2-2---5-5-5---4-4-4-|
A--2-2-2---0-0-0---5-5-5---4-4-4---2-2-2---0-0-0---5-5-5---4-4-4-|
E--2-2-2---x-x-x---3-3-3---2-2-2---2-2-2---x-x-x---3-3-3---2-2-2-|
cuz' in the summertime...

E-------2-------2---|
B-------3-------3---|
G-------4-------4---|
D-----------4-------|
A----2--------------|
E-------------------|

verse
verse(solo)
chorus
Tap to rate this tab
# A B C D E F G H I J K L M N O P Q R S T U V W X Y Z