Song name
# A B C D E F G H I J K L M N O P Q R S T U V W X Y Z

Misc Unsigned Bands - Uranus - Days Of Wine And Roses tab

-------------------------------------------------------------------------------
Uranus- Days of Wine and Roses
-------------------------------------------------------------------------------

Solo
e|---------------------------------------------------------------------------|
B|----------------------------------------10-11-10---------------------------|
G|----------------------------------9-10-------------------------------------|
D|---------------------10--10-10-12------------------------------------------|
A|------------10-12-13-------------------------------------------------------|
E|---10-12-13----------------------------------------------------------------|

e|-------------10----------10------------------------------------------------|
B|----10-11-13----13-13-13----13-11-10--10-11-10-----------------------------|
G|-----------------------------------------------12-10-12-10-----------------|
D|-----------------------------------------------------------12-10-----------|
A|---------------------------------------------------------------------------|
E|---------------------------------------------------------------------------|

e|---------------------------------------------------------------------------|
B|----10-13-12-11-10---------------------------------------------------------|
G|-------------------10------------------------------------------------------|
D|----------------------11-10-11-10------------------------------------------|
A|----------------------------------13-12-13-12-10----------10----12---------|
E|--------------------------------------------------8-10-12----13------------|

e|---------------------------------------------------------------------------|
B|---------------------------------------------------------------------------|
G|---------------------------------------------------------------------------|
D|---12-10--10----10----10----10---------------------------------------------|
A|-------------13----13----13----13-12-13-12-10----10------------------------|
E|----------------------------------------------13----13-10-13---------------|

e|---------------------------------------------------------------------------|
B|--------------------------10-13--------------------------------------------|
G|------------------9-10-12--------------------------------------------------|
D|------------10-12----------------------------------------------------------|
A|--10-12-13-----------------------------------------------------------------|
E|---------------------------------------------------------------------------|


************************************

| /   slide up
| \   slide down
| h   hammer-on
| p   pull-off
| ~   vibrato
| +   harmonic
| x   Mute note
| b   Bend
| pb  Pre-bend
| br  Bend release
| pbr Pre-bend release
| brb Bend release bend

************************************
Tap to rate this tab
 
# A B C D E F G H I J K L M N O P Q R S T U V W X Y Z