Song name
# A B C D E F G H I J K L M N O P Q R S T U V W X Y Z

Misc Unsigned Bands - Seth Harcrow - Less Ignored tab

-------------------------------------------------------------------------------
			     Less Ignored - Seth Harcrow
-------------------------------------------------------------------------------
Tabbed by: Seth Harcrow
Email: funkitupallday@gmail.com

Tuning: Standard

e|---------------------------------------------------------------------------|
B|---------------------------------------------------------------------------|
G|---------------------------------------------------------------------------|
D|----h2--h9p2-------------h2--h9p2-------------h2--h9p2---------------------|
A|----------------h9-------------------h9-------------------h9---------------|
E|-0h4---------p4------0h4---------p4--------0h4---------p4------------------|

e|-----------------------------------------------------------------------------|
B|-----------------------------------------------------------------------------|
G|-----------------------------------------------------------------------------|
D|-----h2--h9p2------------h4--h9p4------------h4--h9p4-----------h4--h9p4-----|
A|----------------h9-----------------h9------------------h9-----------------h9-|
E|--0h4---------p4------0h5--------p4-------0h5--------p4------0h5--------p4---|

e|---------------------------------------------------------------------------|
B|---------------------------------------------------------------------------|
G|---------------------------------------------------------------------------|
D|-----h4--------------------------------------------------------------------|
A|--------h11p---h7----------------------------------------------------------|
E|--0h5--------p4------------------------------------------------------------|

e|---------------------------------------------------------------------------|
B|---------------------------------------------------------------------------|
G|---------------------------------------------------------------------------|
D|----h2--h9p2-------------h2--h9p2-------------h2--h9p2---------------------|
A|----------------h9-------------------h9-------------------h9---------------|
E|-0h4---------p4------0h4---------p4--------0h4---------p4------------------|

e|-----------------------------------------------------------------------------|
B|-----------------------------------------------------------------------------|
G|-----------------------------------------------------------------------------|
D|-----h2--h9p2------------h4--h9p4------------h4--h9p4-----------h4--h9p4-----|
A|----------------h9-----------------h9------------------h9-----------------h9-|
E|--0h4---------p4------0h5--------p4-------0h5--------p4------0h5--------p4---|

e|---------------------------------------------------------------------------|
B|---------------------------------------------------------------------------|
G|---------------------------------------------------------------------------|
D|-----h4--------------------------------------------------------------------|
A|--------h11p---h7----------------------------------------------------------|
E|--0h5--------p4------------------------------------------------------------|


e|---------------------------------------------------------------------------|
B|---------------------------------------------------------------------------|
G|----h8--------------h8--------------h9---------------h11-------------------|
D|--h4------h4------h4------h4------h7------h7-------h7-------h7-------------|
A|--------h9--h7--h7------h9--h7--h9------h9--h11--h9-------h9--h11--h9------|
E|------h5------h5------h5------h5------h7-------h7-------h7-------h7--------|

e|---------------------------------------------------------------------------|
B|---------------------------------------------------------------------------|
G|----h8--------------h8--------------h9---------------h11-------------------|
D|--h4------h4------h4------h4------h7------h7-------h7-------h7-------------|
A|--------h9--h7--h7------h9--h7--h9------h9--h11--h9-------h9--h11--h9------|
E|------h5------h5------h5------h5------h7-------h7-------h7-------h7--------|

e|---------------------------------------------------------------------------|
B|---------------------------------------------------------------------------|
G|----h8--------------h8--------------h9---------------h11-------------------|
D|--h4------h4------h4------h4------h7------h7-------h7-------h7-------------|
A|--------h9--h7--h7------h9--h7--h9------h9--h11--h9-------h9--h11--h9------|
E|------h5------h5------h5------h5------h7-------h7-------h7-------h7--------|

e|---------------------------------------------------------------------------|
B|---------------------------------------------------------------------------|
G|----h8--------------h8--------------h9---------------h11-------------------|
D|--h4------h4------h4------h4------h7------h7-------h7----------------------|
A|--------h9--h7--h7------h9--h7--h9------h9--h11--h9-------h9s11------------|
E|------h5------h5------h5------h5------h7-------h7-------h7-----------------|

e|---------------------------------------------------------------------------|
B|---------------------------------------------------------------------------|
G|---------------------------------------------------------------------------|
D|-----h4--------------h7----------------h4--------------h7------------------|
A|-------h11s9p0--h9-----h9s11p0h11--------h11s9p0--h9-----h9s11p0--h7-------|
E|--0h5---------p5--0h7---------------0h5---------p5--0h7---------p0---------|

e|---------------------------------------------------------------------------|
B|---------------------------------------------------------------------------|
G|------------------------------h8-------------------------------------------|
D|-----h4--------------h7----------------h4--------------h7------------------|
A|-------h11s9p0--h9-----h9s11p0-----------h11s9p0--h9-----h9s11p0--h7-------|
E|--0h5---------p5--0h7---------------0h5---------p5--0h7---------p0---------|

Start the same thing over (outro is played slightly different)

e|---------------------------------------------------------------------------|
B|---------------------------------------------------------------------------|
G|---------------------------------------------------------------------------|
D|----h2--h9p2-------------h2--h9p2-------------h2--h9p2---------------------|
A|----------------h9-------------------h9-------------------h9---------------|
E|-0h4---------p4------0h4---------p4--------0h4---------p4------------------|

e|-----------------------------------------------------------------------------|
B|-----------------------------------------------------------------------------|
G|-----------------------------------------------------------------------------|
D|-----h2--h9p2------------h4--h9p4------------h4--h9p4-----------h4--h9p4-----|
A|----------------h9-----------------h9------------------h9-----------------h9-|
E|--0h4---------p4------0h5--------p4-------0h5--------p4------0h5--------p4---|

e|---------------------------------------------------------------------------|
B|---------------------------------------------------------------------------|
G|---------------------------------------------------------------------------|
D|-----h4--------------------------------------------------------------------|
A|--------h11p---h7----------------------------------------------------------|
E|--0h5--------p4------------------------------------------------------------|

e|---------------------------------------------------------------------------|
B|---------------------------------------------------------------------------|
G|---------------------------------------------------------------------------|
D|----h2--h9p2-------------h2--h9p2-------------h2--h9p2---------------------|
A|----------------h9-------------------h9-------------------h9---------------|
E|-0h4---------p4------0h4---------p4--------0h4---------p4------------------|

e|-----------------------------------------------------------------------------|
B|-----------------------------------------------------------------------------|
G|-----------------------------------------------------------------------------|
D|-----h2--h9p2------------h4--h9p4------------h4--h9p4-----------h4--h9p4-----|
A|----------------h9-----------------h9------------------h9-----------------h9-|
E|--0h4---------p4------0h5--------p4-------0h5--------p4------0h5--------p4---|

e|---------------------------------------------------------------------------|
B|---------------------------------------------------------------------------|
G|---------------------------------------------------------------------------|
D|-----h4--------------------------------------------------------------------|
A|--------h11p--h7-----------------------------------------------------------|
E|--0h5--------p4------------------------------------------------------------|


e|---------------------------------------------------------------------------|
B|---------------------------------------------------------------------------|
G|----h8--------------h8--------------h9---------------h11-------------------|
D|--h4------h4------h4------h4------h7------h7-------h7-------h7-------------|
A|--------h9--h7--h7------h9--h7--h9------h9--h11--h9-------h9--h11--h9------|
E|------h5------h5------h5------h5------h7-------h7-------h7-------h7--------|

e|---------------------------------------------------------------------------|
B|---------------------------------------------------------------------------|
G|----h8--------------h8--------------h9---------------h11-------------------|
D|--h4------h4------h4------h4------h7------h7-------h7-------h7-------------|
A|--------h9--h7--h7------h9--h7--h9------h9--h11--h9-------h9--h11--h9------|
E|------h5------h5------h5------h5------h7-------h7-------h7-------h7--------|

e|---------------------------------------------------------------------------|
B|---------------------------------------------------------------------------|
G|----h8--------------h8--------------h9---------------h11-------------------|
D|--h4------h4------h4------h4------h7------h7-------h7-------h7-------------|
A|--------h9--h7--h7------h9--h7--h9------h9--h11--h9-------h9--h11--h9------|
E|------h5------h5------h5------h5------h7-------h7-------h7-------h7--------|

e|---------------------------------------------------------------------------|
B|---------------------------------------------------------------------------|
G|----h8--------------h8--------------h9---------------h11-------------------|
D|--h4------h4------h4------h4------h7------h7-------h7----------------------|
A|--------h9--h7--h7------h9--h7--h9------h9--h11--h9-------h9s11------------|
E|------h5------h5------h5------h5------h7-------h7-------h7-----------------|

e|---------------------------------------------------------------------------|
B|---------------------------------------------------------------------------|
G|---------------------------------------------------------------------------|
D|-----h4--------------h7----------------h4--------------h7------------------|
A|-------h11s9p0--h9-----h9s11p0h11--------h11s9p0--h9-----h9s11p0--h7-------|
E|--0h5---------p5--0h7---------------0h5---------p5--0h7---------p0---------|

e|---------------------------------------------------------------------------|
B|---------------------------------------------------------------------------|
G|------------------------------h8-------------------------------------------|
D|-----h4--------------h7----------------h4--------------h7------------------|
A|-------h11s9p0--h9-----h9s11p0-----------h11s9p0--h9-----h9s11p0--h7-------|
E|--0h5---------p5--0h7---------------0h5---------p5--0h7---------p0---------|

e|---------------------------------------------------------------------------|
B|---------------------------------------------------------------------------|
G|---------------------------------------------------------------------------|
D|-----h4--------------h7----------------h4--------------h7------------------|
A|-------h11s9p0--h9-----h9s11p0h11--------h11s9p0--h9-----h9s11p0--h7-------|
E|--0h5---------p5--0h7---------------0h5---------p5--0h7---------p0---------|

e|---------------------------------------------------------------------------|
B|---------------------------------------------------------------------------|
G|------------------------------h9-------------------------------------------|
D|-----h4--------------h7----------------h4--------------h7------------------|
A|-------h11s9p0--h9-----h9s11p0-----------h11s9p0--h9-----h9s11p0--h7-------|
E|--0h5---------p5--0h7---------------0h5---------p5--0h7---------p0---------|

e|---------------------------------------------------------------------------|
B|---------------------------------------------------------------------------|
G|---------------------------------------------------------------------------|
D|-----h4--------------h7----------------h4--------------h7------------------|
A|-------h11s9p0--h9-----h9s11p0h11--------h11s9p0--h9-----h9s11p0--h7-------|
E|--0h5---------p5--0h7---------------0h5---------p5--0h7---------p0---------|

e|------------------------------------------|
B|------------------------------------------|
G|------------------------------h11---------|
D|-----h4--------------h7-------------------|
A|-------h11s9p0--h9-----h9s11p0------------|
E|--0h5---------p5--0h7---------------------|
									   +
e|-------------------------------------------------------------------------12--|
B|-------------------------------------------------------------------------12--|
G|-----------------------------------------------------------------------------|
D|-------h4--------------h7----------------------------------------------------|
A|---------h11s9p0--h9-----h9s11p0--h7p0h2h7p0h2h4p0---------------------------|
E|----0h5---------p5--0h7---------p0----------------h2h4--h5p4p2p0-------------|


************************************

| /   slide up
| \   slide down
| h   hammer-on
| p   pull-off
| ~   vibrato
| +   harmonic
| x   Mute note
| b   Bend
| pb  Pre-bend
| br  Bend release
| pbr Pre-bend release
| brb Bend release bend

************************************
Tap to rate this tab
# A B C D E F G H I J K L M N O P Q R S T U V W X Y Z