Song name
# A B C D E F G H I J K L M N O P Q R S T U V W X Y Z

Misc Unsigned Bands - Bringers Of The Sun - Mummificationonononon tab

Intro:

e:-----------------------------|
B:------------------------1-3--|
G:------------------------3-5--|
D:-------------------5b---0-0--|
A:---5---5--8-7-0-3------------|
D:-----0-----------------------|    (2x)


Verse:
e:----------------------------------------------------|
B:----------------------------------------------------|
G:----------------------------------------------------|
D:-------------------3--5-----------------------------|       (5x)
A:-0000-000-00-00----1--3-----------------------------|
D:-0000-000-00-00-------------------------------------|

Chorus:

e:---------------------------------------|
B:---------------------------------------|
G:---------------------------------------|
D:--3--------7---------5----------9------|
A:--1-(7x)---5-(7x)----3--(7x)----7-(7x)-|
D:--2--------6---------4----------8------|

Verse:

e:--------------------------------------------|
B:--------------------------------------------|
G:--------------------------------------------|
D:-------------------3--5---------------------|       (5x)
A:-0000-000-00-00----1--3---------------------|
D:-0000-000-00-00-----------------------------|

Solo:

e:---------------------------------------------------------------------------|
B:------------------------------------------------------------------17-s16---|
G:------------------------------------------15-s16----17-h19-17h19-----------|
D:------------------13-s12----15-h17-15-h17----------------------------------|
A:--13-h15--13-h15-----------------------------------------------------------|
D:---------------------------------------------------------------------------|

e:--------------------18-s16~-----------|
B:----19-h20-19-h20---------------------|
G:--------------------------------------|
D:--------------------------------------|
A:---------------------------------1----|
D:---------------------------------0----|

Interlude:
   (PM-----------------------|
e:---------------------------|
B:---------------------------|
G:---------------------------|
D:---------------------------|
A:-0~-----0~-----0~----------|
D:-0~-----0~-----0~----------|

Breakdown:
e:--------------------|
B:--------------------|
G:--------------------|
D:--------------------|
A:000000---0000---00--|
D:000000---0000---00--|

Chorus:

e:---------------------------------------|
B:---------------------------------------|
G:---------------------------------------|
D:--3--------7---------5----------9------|
A:--1-(7x)---5-(7x)----3--(7x)----7-(7x)-|
D:--2--------6---------4----------8------|

Outro

e:----------------------------|
B:----------------------------|
G:----------------------------|
D:-12~~s---1-p0---------------|
A:-12~~s---1-p0---------------|
D:-12~~s---1-p0---------------|
Tap to rate this tab
# A B C D E F G H I J K L M N O P Q R S T U V W X Y Z