Song name
# A B C D E F G H I J K L M N O P Q R S T U V W X Y Z

Misc Unsigned Bands - Where Angels Die - Blessed Fates tab

----------------------------------------------------------------------------
                   Blessed Fates by Where Angels Die
----------------------------------------------------------------------------
By: austins2013
email: austins2013@hotmail.com
Tuning: Drop B
From thick to thin: B F# B E G# C#
Please "LIKE" Where Angels Die on Facebook
http://www.facebook.com/pages/Where-Angels-Die/120590211351581?ref=tn_tnmn

NOTE! There are very subtle changes in some of the riffs. Pay close attention. Also, in
case you don't already know, for some reason, guitar tabs are supposed to be upside
down. So the bottom line, is the thickest string. There is also a symbol key at the 
bottom. I even took the liberty of adding the lyrics so it'll be easier to know where you are.
Good luck!

Main Riff Part 1 (part two has small changes)
|--------------------------------------------------------------------------|
|--------------------------------------------------------------------------|
|--------------------------------------------------------------------------|
|-7---6---7---6---------7---6---7---6---14-14-14-7---6---7---6-------------|
|-4---4---4---4---0-0-0-4---4---4---4---12-12-12-4---4---4---4---0-0-0-----|
|-4-4-4-4-4-4-4-4-0-0-0-4-4-4-4-4-4-4-4-12-12-12-4-4-4-4-4-4-4-4-0-0-0-----|
    .   .   .   . . . .   .   .   .   .            .   .   .   . . . .

|--------------------------------------------------------------------------|
|--------------------------------------------------------------------------|
|--------------------------------------------------------------------------|
|-7---6---7---6---2---7---6---7---6---------7---6---7---6---14-14-14-------|
|-4---4---4---4---2---4---4---4---4---0-0-0-4---4---4---4---12-12-12-------|
|-4-4-4-4-4-4-4-4-2~--4-4-4-4-4-4-4-4-0-0-0-4-4-4-4-4-4-4-4-12-12-12-------|
    .   .   .   .       .   .   .   . . . .   .   .   .   .

|--------------------------------------------------------------------------|
|--------------------------------------------------------------------------|
|--------------------------------------------------------------------------|
|--------------------------------------------------------------------------|
|-4---4---4---4---------------4---4---4---4---0~--2~-----------------------|
|-4-4-4-4-4-4-4-4-000-000-000-4-4-4-4-4-4-4-4-0~--2~-----------------------|
    .   .   .   . ... ... ...   .   .   .   .

Verse
|--------------------------------------------------------------------------|
|--------------------------------------------------------------------------|
|--------------------------------------------------------------------------|
|-----7---6-----6---4-------7---6-----7---9--6h7p6p4h6p4p0-----------------|
|--------------------------------------------------------------------------|
|-4-4---4---0-0---0-----4-4---4---0-0---0----------------------------------|
  . .   .   . .   .     . .   .   . .   .
     "Standing at the"    "Edge as I say goodbye"

|--------------------------------------------------------------------------|
|--------------------------------------------------------------------------|
|--------------------------------------------------------------------------|
|-----7---6-----6---4-------7---6-----9---7---6---7------------------------|
|--------------------------------------------------------------------------|
|-4-4---4---0-0---0-----4-4---4---0-0---0---0---0--------------------------|
  . .   .   . .   .     . .   .   . .   .   .   .
"To all the past lives"    "to all the sinners and saints"

|--------------------------------------------------------------------------|
|--------------------------------------------------------------------------|
|--------------------------------------------------------------------------|
|-----7---6-----6---4-------7---6-----7---9--6h7p6p4h6p4p0-----------------|
|--------------------------------------------------------------------------|
|-4-4---4---0-0---0-----4-4---4---0-0---0----------------------------------|
  . .   .   . .   .     . .   .   . .   .
    "why can't I wait"    "to see the end of this life"

|--------------------------------------------------------------------------|
|--------------------------------------------------------------------------|
|--------------------------------1h2p1-------1h2p1-------------------------|
|-----7---6-----6---4-----7---6--------2---2-------2-----------------------|
|----------------------------------------4-----------4--0~--2~-------------|
|-4-4---4---0-0---0---4-4---4---------------------------0~--2~-------------|
  . .   .   . .   .   . .   .          . . .       . .  .
     "and as it dies"     "its left to the Blessed Fates"

Chorus Part 1 (part 2 changes)
|--------------------------------------------------------------------------|
|--------------------------------------------------------------------------|
|-6-6-6-6-6-6-6-6--6--6-7-7-7-7--2-2-2-2-2-2-2-4--4--4-4-4-4-4-------------|
|-4-4-4-4-4-4-4-4--4--4-4-4-4-4--0-0-0-0-0-0-0-2--2--2-2-2-2-2-------------|
|-4-4-4-4-4-4-4-4--4--4-4-4-4-4--0-0-0-0-0-0-0-2--2--2-2-2-2-2-------------|
|-4-4-4-4-4-4-4-4--4--4-4-4-4-4--0-0-0-0-0-0-0-2--2--2-2-2-2-2-------------|
"will I ever wake from this     |"rooftop as my savior
           curse of a life this"|     the ground as my goodbye"

|--------------------------------------------------------------------------|
|--------------------------------------------------------------------------|
|-6-6-6-6-6-6-6-6--6--6-7-7-7-7--2-2-2-2-2-2-2-4--4--4-4-4-4-4-------------|
|-4-4-4-4-4-4-4-4--4--4-4-4-4-4--0-0-0-0-0-0-0-2--2--2-2-2-2-2-------------|
|-4-4-4-4-4-4-4-4--4--4-4-4-4-4--0-0-0-0-0-0-0-2--2--2-2-2-2-2-------------|
|-4-4-4-4-4-4-4-4--4--4-4-4-4-4--0-0-0-0-0-0-0-2--2--2-2-2-2-2-------------|
                                                       . . . .
"will I ever wake from this     |"rooftop as my savior
           curse of a life this"|     the ground as my goodbye"


Main Riff Part 2 (this is where it changes I'll put the change in parenthesis)
|--------------------------------------------------------------------------|
|--------------------------------------------------------------------------|
|--------------------------------------------------------------------------|
|-7---6---7---6---------7---6---7---6---14-14-14-7---6---7---6-------------|
|-4---4---4---4---0-0-0-4---4---4---4---12-12-12-4---4---4---4---0-0-0-----|
|-4-4-4-4-4-4-4-4-0-0-0-4-4-4-4-4-4-4-4-12-12-12-4-4-4-4-4-4-4-4-0-0-0-----|
    .   .   .   . . . .   .   .   .   .            .   .   .   . . . .

|--------------------------------------------------------------------------|
|--------------------------------------------------------------------------|
|--------------------------------------------------------------------------|
|-7---6---7---6------------------------------------------------------------|
|-4---4---4---4---0~-------------------------------------------------------|
|-4-4-4-4-4-4-4-4-0~--(222-222-222)----------------------------------------|
    .   .   .   .      ... ... ...

Verse
|--------------------------------------------------------------------------|
|--------------------------------------------------------------------------|
|--------------------------------------------------------------------------|
|-----7---6-----6---4-------7---6-----7---9--6h7p6p4h6p4p0-----------------|
|--------------------------------------------------------------------------|
|-4-4---4---0-0---0-----4-4---4---0-0---0----------------------------------|
  . .   .   . .   .     . .   .   . .   .
"their tears run down"     "my face as I fall"

|--------------------------------------------------------------------------|
|--------------------------------------------------------------------------|
|--------------------------------------------------------------------------|
|-----7---6-----6---4-------7---6-----9---7---6---7------------------------|
|--------------------------------------------------------------------------|
|-4-4---4---0-0---0-----4-4---4---0-0---0---0---0--------------------------|
  . .   .   . .   .     . .   .   . .   .   .   .
"into the next world"      "to face my damnation"

|--------------------------------------------------------------------------|
|--------------------------------------------------------------------------|
|--------------------------------------------------------------------------|
|-----7---6-----6---4-------7---6-----7---9--6h7p6p4h6p4p0-----------------|
|--------------------------------------------------------------------------|
|-4-4---4---0-0---0-----4-4---4---0-0---0----------------------------------|
  . .   .   . .   .     . .   .   . .   .
"each of the dead show"     "the scars I have left them"

|----------------------------------------------------------------------------|
|----------------------------------------------------------------------------|
|----------------------------------1h2p1-------1h2p1-------------------------|
|-----7---6-----6---4-----7---6---------2---2-------2------------------------|
|-----------------------------------------4-----------4--0~--2~--------------|
|-4-4---4---0-0---0---4-4---4----------------------------0~--2~--------------|
  . .   .   . .       . .   .           . . .       . .  .
"with each hurt soul"    "I find my own scars"

Chorus Part 2 (again I'll put the changes in parenthesis)
|--------------------------------------------------------------------------|
|--------------------------------------------------------------------------|
|-6-6-6-6-6-6-6-6--6--6-7-7-7-7--2-2-2-2-2-2-2-4--4--4-4-4-4-4-------------|
|-4-4-4-4-4-4-4-4--4--4-4-4-4-4--0-0-0-0-0-0-0-2--2--2-2-2-2-2-------------|
|-4-4-4-4-4-4-4-4--4--4-4-4-4-4--0-0-0-0-0-0-0-2--2--2-2-2-2-2-------------|
|-4-4-4-4-4-4-4-4--4--4-4-4-4-4--0-0-0-0-0-0-0-2--2--2-2-2-2-2-------------|
"will I ever wake from this     |"rooftop as my savior
           curse of a life this"|     the ground as my goodbye"

|--------------------------------------------------------------------------|
|--------------------------------------------------------------------------|
|-6-6-6-6-6-6-6-6--6--6-7-7-7-7--2-2-2-2-2-2-2-4--4--4-4-4-4-4-------------|
|-4-4-4-4-4-4-4-4--4--4-4-4-4-4--0-0-0-0-0-0-0-2--2--2-2-2-2-2-------------|
|-4-4-4-4-4-4-4-4--4--4-4-4-4-4--0-0-0-0-0-0-0-2--2--2-2-2-2-2-------------|
|-4-4-4-4-4-4-4-4--4--4-4-4-4-4--0-0-0-0-0-0-0-2--2--2-2-2-2-2-------------|
"will I ever wake from this     |"rooftop as my savior
           curse of a life this"|     the ground as my goodbye"

|--------------------------------------------------------------------------|
|--------------------------------------------------------------------------|
|-6-6-6-6-6-6-6-6--6--6-7-7-7-7--2-2-2-2-2-2-2-4--4--4-4-4-4-4-------------|
|-4-4-4-4-4-4-4-4--4--4-4-4-4-4--0-0-0-0-0-0-0-2--2--2-2-2-2-2-------------|
|-4-4-4-4-4-4-4-4--4--4-4-4-4-4--0-0-0-0-0-0-0-2--2--2-2-2-2-2-------------|
|-4-4-4-4-4-4-4-4--4--4-4-4-4-4--0-0-0-0-0-0-0-2--2--2-2-2-2-2-------------|
"will I ever wake from this     |"rooftop as my savior
           curse of a life this"|     the ground as my goodbye"

|--------------------------------------------------------------------------|
|--------------------------------------------------------------------------|
|-6-6-6-6-6-6-6-6--6--6-7-7-7-7--2-2-2-2-2-2-2-4--4--4-4-4-4-4-------------|
|-4-4-4-4-4-4-4-4--4--4-4-4-4-4--0-0-0-0-0-0-0-2--2--2-2-2-2-2-------------|
|-4-4-4-4-4-4-4-4--4--4-4-4-4-4--0-0-0-0-0-0-0-2--2--2-2-2-2-2-(4~-5-4-0~)-|
|-4-4-4-4-4-4-4-4--4--4-4-4-4-4--0-0-0-0-0-0-0-2--2--2-2-2-2-2-(4~-5-4-1~)-|
                                                                   . . .
"will I ever wake from this     |"rooftop as my savior
           curse of a life this"|     the ground as my goodbye"
---------------------------------------------------------------------
                 and yes this last chord is supposed to be ugly as hell^

Bridge
|--------------------------------------------------------------------------|
|--------------------------------------------------------------------------|
|-6-6-6-6~-6-6-6-7~-2-2-2-2~-4-4-4-4~-6-6-6-6~-6-6-6-7~-2-2-2-2~-4-4-4-4~--|
|-4-4-4-4~-4-4-4-4~-0-0-0-0~-2-2-2-2~-4-4-4-4~-4-4-4-4~-0-0-0-0~-2-2-2-2~--|
|-4-4-4-4~-4-4-4-4~-0-0-0-0~-2-2-2-2~-4-4-4-4~-4-4-4-4~-0-0-0-0~-2-2-2-2~--|
|-4-4-4-4~-4-4-4-4~-0-0-0-0~-2-2-2-2~-4-4-4-4~-4-4-4-4~-0-0-0-0~-2-2-2-2~--|
  . . . .  . . . .  . . . .  . . . .  . . . .  . . . .  . . . .  . . . .

Interlude
|--------------------------------------------------------------------------|
|--------------------------------------------------------------------------|
|----14-13-14-16-14-13-14-11-13-11-13-14-13-11-----------------------------|
|-16-------------------------------------------11--------------------------|
|--------------------------------------------------------------------------|
|--------------------------------------------------------------------------|

|--------------------------------------------------------------------------|
|--------------------------------------------------------------------------|
|----14-13-14-16-14-13-14-18-16-14-16-14-13-14-13--------------------------|
|-16-----------------------------------------------------------------------|
|--------------------------------------------------------------------------|
|--------------------------------------------------------------------------|

|--------------------------------------------------------------------------|
|--------------------------------------------------------------------------|
|----14-13-14-16-14-13-14-11-13-11-13-14-13-11-----------------------------|
|-16-------------------------------------------11--------------------------|
|--------------------------------------------------------------------------|
|--------------------------------------------------------------------------|

|--------------------------------------------------------------------------|
|--------------------------------------------------------------------------|
|----14-13-14-16-14-13-18~~~--6-6-6-6~-6-6-6-7~----------------------------|
|-16--------------------------4-4-4-4~-4-4-4-4~----------------------------|
|-----------------------------4-4-4-4~-4-4-4-4~----------------------------|
|-----------------------------4-4-4-4~-4-4-4-4~----------------------------|
                              . . . .  . . . .
OH!

Breakdown (same as bridge, but don't let it ring out)
Bridge
|--------------------------------------------------------------------------|
|--------------------------------------------------------------------------|
|-6-6-6-6--6-6-6-7--2-2-2-2--4-4-4-4--6-6-6-6~-6-6-6-7--2-2-2-2--4-4-4-4---|
|-4-4-4-4--4-4-4-4--0-0-0-0--2-2-2-2--4-4-4-4~-4-4-4-4--0-0-0-0--2-2-2-2---|
|-4-4-4-4--4-4-4-4--0-0-0-0--2-2-2-2--4-4-4-4~-4-4-4-4--0-0-0-0--2-2-2-2---|
|-4-4-4-4--4-4-4-4--0-0-0-0--2-2-2-2--4-4-4-4~-4-4-4-4--0-0-0-0--2-2-2-2---|
  . . . .  . . . .  . . . .  . . . .  . . . .  . . . .  . . . .  . . . .

Solo (now, in the song its on piano, but I originally wrote is as a guitar part,but our
producer came up with the idea to transpose it on piano. At practice we do both and I do
the guitar. I can't read music (ironic) so I can't write the piano part, just guitar)
|-21p17--------------------17h21p17------17h21p17--------------------17h21-|
|------19----------------19--------19--19--------19----------------19------|
|--------18------------18------------18------------18------------18--------|
|----------19--------19------------------------------19--------19----------|
|------------21p17h21----------------------------------21p17h21------------|
|--------------------------------------------------------------------------|

|-19p16--------------------16h19p16------16h19p16--------------------16h19-|
|------17----------------17--------17--17--------17----------------17------|
|--------16------------16------------16------------16------------16--------|
|----------18--------18------------------------------18--------18----------|
|------------19p16h19----------------------------------19p16h19------------|
|--------------------------------------------------------------------------|

|-21p17--------------------17h21p17------17h21p17--------------------17h21-|
|------19----------------19--------19--19--------19----------------19------|
|--------18------------18------------18------------18------------18--------|
|----------19--------19------------------------------19--------19----------|
|------------21p17h21----------------------------------21p17h21------------|
|--------------------------------------------------------------------------|

|-19p16--------------------16h19p16------16h19p16--------------------16h19-|
|------17----------------17--------17--17--------17----------------17------|
|--------16------------16------------16------------16------------16--------|
|----------18--------18------------------------------18--------18----------|
|------------19p16h19----------------------------------19p16h19------------|
|--------------------------------------------------------------------------|

Main Riff (the repeats are slightly different on this one)
|--------------------------------------------------------------------------|
|--------------------------------------------------------------------------|
|--------------------------------------------------------------------------|
|-7---6---7---6---------7---6---7---6---14-14-14-7---6---7---6-------------|
|-4---4---4---4---0-0-0-4---4---4---4---12-12-12-4---4---4---4---0-0-0-----|
|-4-4-4-4-4-4-4-4-0-0-0-4-4-4-4-4-4-4-4-12-12-12-4-4-4-4-4-4-4-4-0-0-0-----|
    .   .   .   . . . .   .   .   .   .            .   .   .   . . . .

|--------------------------------------------------------------------------|
|--------------------------------------------------------------------------|
|--------------------------------------------------------------------------|
|-7---6---7---6---0~-2~----------------------------------------------------|
|-4---4---4---4---0~-2~----------------------------------------------------|
|-4-4-4-4-4-4-4-4-0~-2~----------------------------------------------------|
    .   .   .   . .

Verse
|--------------------------------------------------------------------------|
|--------------------------------------------------------------------------|
|--------------------------------------------------------------------------|
|-----7---6-----6---4-------7---6-----7---9--6h7p6p4h6p4p0-----------------|
|--------------------------------------------------------------------------|
|-4-4---4---0-0---0-----4-4---4---0-0---0----------------------------------|
  . .   .   . .   .     . .   .   . .   .
     "have I fallen"    "from the heights of grace"

|--------------------------------------------------------------------------|
|--------------------------------------------------------------------------|
|--------------------------------------------------------------------------|
|-----7---6-----6---4-------7---6-----9---7---6---7------------------------|
|--------------------------------------------------------------------------|
|-4-4---4---0-0---0-----4-4---4---0-0---0---0---0--------------------------|
  . .   .   . .   .     . .   .   . .   .   .   .
     "I'll be denied"    "my right to walk this earth"

|--------------------------------------------------------------------------|
|--------------------------------------------------------------------------|
|--------------------------------------------------------------------------|
|-----7---6-----6---4-------7---6-----7---9--6h7p6p4h6p4p0-----------------|
|--------------------------------------------------------------------------|
|-4-4---4---0-0---0-----4-4---4---0-0---0----------------------------------|
  . .   .   . .   .     . .   .   . .   .
    "how can I make"        "reparations for"

|--------------------------------------------------------------------------|
|--------------------------------------------------------------------------|
|--------------------------------1h2p1-------1h2p1-------------------------|
|-----7---6-----6---4-----7---6--------2---2-------2-----------------------|
|----------------------------------------4-----------4--0~--2~-------------|
|-4-4---4---0-0---0---4-4---4---------------------------0~--2~-------------|
  . .   .   . .   .   . .   .          . . .       . .  .
     "what I have done"     "I'll take my last steps"


Final Chorus
|--------------------------------------------------------------------------|
|--------------------------------------------------------------------------|
|-6-6-6-6-6-6-6-6--6--6-7-7-7-7--2-2-2-2-2-2-2-4--4--4-4-4-4-4-------------|
|-4-4-4-4-4-4-4-4--4--4-4-4-4-4--0-0-0-0-0-0-0-2--2--2-2-2-2-2-------------|
|-4-4-4-4-4-4-4-4--4--4-4-4-4-4--0-0-0-0-0-0-0-2--2--2-2-2-2-2-------------|
|-4-4-4-4-4-4-4-4--4--4-4-4-4-4--0-0-0-0-0-0-0-2--2--2-2-2-2-2-------------|
"will I ever wake from this     |"rooftop as my savior
           curse of a life this"|     the ground as my goodbye"

|--------------------------------------------------------------------------|
|--------------------------------------------------------------------------|
|-6-6-6-6-6-6-6-6--6--6-7-7-7-7--2-2-2-2-2-2-2-4--4--4-4-4-4-4-------------|
|-4-4-4-4-4-4-4-4--4--4-4-4-4-4--0-0-0-0-0-0-0-2--2--2-2-2-2-2-------------|
|-4-4-4-4-4-4-4-4--4--4-4-4-4-4--0-0-0-0-0-0-0-2--2--2-2-2-2-2-------------|
|-4-4-4-4-4-4-4-4--4--4-4-4-4-4--0-0-0-0-0-0-0-2--2--2-2-2-2-2-------------|
"will I ever wake from this     |"rooftop as my savior
           curse of a life this"|     the ground as my goodbye"

|--------------------------------------------------------------------------|
|--------------------------------------------------------------------------|
|-6-6-6-6-6-6-6-6--6--6-7-7-7-7--2-2-2-2-2-2-2-4--4--4-4-4-4-4-------------|
|-4-4-4-4-4-4-4-4--4--4-4-4-4-4--0-0-0-0-0-0-0-2--2--2-2-2-2-2-------------|
|-4-4-4-4-4-4-4-4--4--4-4-4-4-4--0-0-0-0-0-0-0-2--2--2-2-2-2-2-------------|
|-4-4-4-4-4-4-4-4--4--4-4-4-4-4--0-0-0-0-0-0-0-2--2--2-2-2-2-2-------------|
"will I ever wake from this     |"rooftop as my savior
           curse of a life this"|     the ground as my goodbye"

|--------------------------------------------------------------------------|
|--------------------------------------------------------------------------|
|-6-6-6-6-6-6-6-6--6--6-7-7-7-7--2-2-2-2-2-2-2-4--4--4-4-4-4-4-6~----------|
|-4-4-4-4-4-4-4-4--4--4-4-4-4-4--0-0-0-0-0-0-0-2--2--2-2-2-2-2-4~----------|
|-4-4-4-4-4-4-4-4--4--4-4-4-4-4--0-0-0-0-0-0-0-2--2--2-2-2-2-2-4~----------|
|-4-4-4-4-4-4-4-4--4--4-4-4-4-4--0-0-0-0-0-0-0-2--2--2-2-2-2-2-4~----------|
          Let this last note ring out until the end of the song^
"will I ever wake from this     |"rooftop as my savior
           curse of a life this"|     the ground as my goodbye"

Symbol Key
. Palm Mute
p Pull Off
h Hammer On
~ Let Ring Out
Tap to rate this tab
 
# A B C D E F G H I J K L M N O P Q R S T U V W X Y Z