Song name
# A B C D E F G H I J K L M N O P Q R S T U V W X Y Z

Misc Unsigned Bands - Razor Red Noise - Dont Pretend tab

This is my first tab so go easy on me. It was really easy to tab this because Alex, 
(GigaScythe on youtube)
the writer and producer and everything else of Razor Red Noise, has a video of the song 
and it shows all that
he is playing. Overall this is very easy with nothing but powerchords and one natural harmonic.
I'm on Youtube: http://www.youtube.com/user/imafreakingtaco25
Good luck learning this song. I made this tab at 4 in the morning, that was random.
     -Jake

Intro:

e -------------------------------------------------------------|
B -------------------------------------------------------------|
G -------------------------------------------------------------|
D--------------------------------------------------------------|  X2
A -9-9-12-12-12-12-11-11-14-14-14--9-9-12-12-12-12-11-11-7-7-7-|
D -------------------------------------------------------------|


(no guitar in verse)

Pre-Chorus:

-----------------------------------------------------------------|
-----------------------------------------------------------------|
-----------------------------------------------------------------|
-4-4-4-4-4-4-4-4-4-4-4-4-4-4-4-4-4-4-4-4-4-4-4-4-4-4-4-4-4-4-4-4-|
-4-4-4-4-4-4-4-4-4-4-4-4-4-4-4-4-4-4-4-4-4-4-4-4-4-4-4-4-4-4-4-4-|
-4-4-4-4-4-4-4-4-4-4-4-4-4-4-4-4-4-4-4-4-4-4-4-4-4-4-4-4-4-4-4-4-|
                          (all palm-muted)
                             (32 strums)

Chorus:

-------------------------------------------------------------------------|
-------------------------------------------------------------------------|
-------------------------------------------------------------------------|
-4-4-4-4-4-4-4-4-4-4-4-4-7-7-7-7-0-0-0-0-0-0-0-0-11-11-11-11-11-11-11-11-|
-4-4-4-4-4-4-4-4-4-4-4-4-7-7-7-7-0-0-0-0-0-0-0-0-11-11-11-11-11-11-11-11-| X2
-4-4-4-4-4-4-4-4-4-4-4-4-7-7-7-7-0-0-0-0-0-0-0-0-11-11-11-11-11-11-11-11-|

(no guitar in 2nd verse)

Pre-Chorus:

-----------------------------------------------------------------|
-----------------------------------------------------------------|
-----------------------------------------------------------------|
-4-4-4-4-4-4-4-4-4-4-4-4-4-4-4-4-4-4-4-4-4-4-4-4-4-4-4-4-4-4-4-4-|
-4-4-4-4-4-4-4-4-4-4-4-4-4-4-4-4-4-4-4-4-4-4-4-4-4-4-4-4-4-4-4-4-|
-4-4-4-4-4-4-4-4-4-4-4-4-4-4-4-4-4-4-4-4-4-4-4-4-4-4-4-4-4-4-4-4-|
                          (all palm-muted)
                             (32 strums)

Chorus:

-------------------------------------------------------------------------|
-------------------------------------------------------------------------|
-------------------------------------------------------------------------|
-4-4-4-4-4-4-4-4-4-4-4-4-7-7-7-7-0-0-0-0-0-0-0-0-11-11-11-11-11-11-11-11-|
-4-4-4-4-4-4-4-4-4-4-4-4-7-7-7-7-0-0-0-0-0-0-0-0-11-11-11-11-11-11-11-11-| X4
-4-4-4-4-4-4-4-4-4-4-4-4-7-7-7-7-0-0-0-0-0-0-0-0-11-11-11-11-11-11-11-11-|

Breakdown/Bridge:

---------------------------------------------------------------------|
---------------------------------------------------------------------|
---------------------------------------------------------------------|
-4-4-4-4-4-4-4-4-4-4-4-4-11-11-11-11-9-9-9-9-9-9-9-9-2-2-2-2-2-2-2-2-|
-4-4-4-4-4-4-4-4-4-4-4-4-11-11-11-11-9-9-9-9-9-9-9-9-2-2-2-2-2-2-2-2-|
-4-4-4-4-4-4-4-4-4-4-4-4-11-11-11-11-9-9-9-9-9-9-9-9-2-2-2-2-2-2-2-2-|

---------------------------------------------------------------------------------------|
---------------------------------------------------------------------------------------|
---------------------------------------------------------------------------------------|
-4-4-4-4-4-4-4-4-4-4-4-4-11-11-11-11-12-12-12-12-12-12-12-12-14-14-14-14-14-14-14-14-4~|
-4-4-4-4-4-4-4-4-4-4-4-4-11-11-11-11-12-12-12-12-12-12-12-12-14-14-14-14-14-14-14-14-4~|
-4-4-4-4-4-4-4-4-4-4-4-4-11-11-11-11-12-12-12-12-12-12-12-12-14-14-14-14-14-14-14-14-4~|

Last Chorus:

----------------------------------------------------------------------------|
----------------------------------------------------------------------------|
----------------------------------------------------------------------------|
-7*-4-4-4-4-4-4-4-4-4-4-4-4-7-7-7-7-0-0-0-0-0-0-0-0-11-11-11-11-11-11-11-11-|
----4-4-4-4-4-4-4-4-4-4-4-4-7-7-7-7-0-0-0-0-0-0-0-0-11-11-11-11-11-11-11-11-| X4
----4-4-4-4-4-4-4-4-4-4-4-4-7-7-7-7-0-0-0-0-0-0-0-0-11-11-11-11-11-11-11-11-|

Final Note of the Song:

--------|
--------|
--------|
-4~~~---|
-4~~~---|
-4~~~---|
Tap to rate this tab
# A B C D E F G H I J K L M N O P Q R S T U V W X Y Z