Song name
# A B C D E F G H I J K L M N O P Q R S T U V W X Y Z

Misc Unsigned Bands - Destry - Leave The Light On tab

Title: Leave the Light On
Artist: Destry (http://www.destryband.com/)
Tuning: Standard

Intro
e|-----------2---------------4-------------------------------------2-|
B|-2-----2-----2---2-----2-----2---4-----4---2---4-----2-----2-------|
G|---3-----3---------4-----4---------4-----4---4---4-----4-----4-3---| x2
D|-------------------------------------------------------------------|
A|-------------------------------------------------------------------|
E|-------------------------------------------------------------------|

Verse One
e|-----------2---------------4---------------2---------------2-------|
B|-2-----2-----2---2-----2-----2---4-----4-----4---2-----2------2*---|
G|---3-----3---------4-----4---------4-----4---------3-----3---------| x3
D|-------------------------------------------------------------------|
A|-------------------------------------------------------------------|
E|-------------------------------------------------------------------|
  *Don't play on 3rd repeat

Chorus
e|-----------2---------------2---------------2---------------2-------|
B|-2-----2-----2---2-----2-----2---4-----4-----4---4-----4-----4-----|
G|---3-----3---------3-----3---------4-----4---------4-----4---------|
D|-------------------------------------------------------------------|
A|-------------------------------------------------------------------|
E|-------------------------------------------------------------------|

e|-----------2---------------2---------------2---------------2-------|
B|-2-----2-----2---2-----2-----2---4-----4-----4---2-----2-----2-----|
G|---3-----3---------3-----3---------4-----4---------3-----3---------|
D|-------------------------------------------------------------------|
A|-------------------------------------------------------------------|
E|-------------------------------------------------------------------|

e|-----------4---------------2---------------2---------------4-------|
B|-2-----2-----2---4-----4-----4---2-----2-----2---2-----2-----------|
G|---3-----3---------4-----4---------3-----3---------3-----3---------|
D|-------------------------------------------------------------------|
A|-------------------------------------------------------------------|
E|-------------------------------------------------------------------|

Verse Two
e|-----------2---------------4---------------2---------------2-------|
B|-2-----2-----2---2-----2-----2---4-----4-----4---2-----2------2*---|
G|---3-----3---------4-----4---------4-----4---------3-----3---------| x4
D|-------------------------------------------------------------------|
A|-------------------------------------------------------------------|
E|-------------------------------------------------------------------|
  *Don't play on 4th repeat

Chorus
e|-----------2---------------2---------------2---------------2-------|
B|-2-----2-----2---2-----2-----2---4-----4-----4---4-----4-----4-----|
G|---3-----3---------3-----3---------4-----4---------4-----4---------|
D|-------------------------------------------------------------------|
A|-------------------------------------------------------------------|
E|-------------------------------------------------------------------|

e|-----------2---------------2---------------2---------------2-------|
B|-2-----2-----2---2-----2-----2---4-----4-----4---2-----2-----2-----|
G|---3-----3---------3-----3---------4-----4---------3-----3---------|
D|-------------------------------------------------------------------|
A|-------------------------------------------------------------------|
E|-------------------------------------------------------------------|

e|-----------4---------------2---------------2---------------4-------|
B|-2-----2-----2---4-----4-----4---2-----2-----2---2-----2-----------|
G|---3-----3---------4-----4---------3-----3---------3-----3---------|
D|-------------------------------------------------------------------|
A|-------------------------------------------------------------------|
E|-------------------------------------------------------------------|

Solo (repeat until fading entirely)
e|-----------5---0-2-----2-------------5---0-2-----2-----------------|
B|-2-----2-------------2-----4-----4-------------2-------------------|
G|---3-----3-------------------4-----4-------------------------------|
D|-------------------------------------------------------------------|
A|-------------------------------------------------------------------|
E|-------------------------------------------------------------------|

e|-----------4-------------5---0-2-----2-------------4---------------|
B|-2-----2-------4-----4-------------2-----2-----2-------------------|
G|---4-----4-------4-----4-------------------4-----4-----------------|
D|-------------------------------------------------------------------|
A|-------------------------------------------------------------------|
E|-------------------------------------------------------------------|
Tap to rate this tab
# A B C D E F G H I J K L M N O P Q R S T U V W X Y Z