Song name
# A B C D E F G H I J K L M N O P Q R S T U V W X Y Z

Misc Unsigned Bands - Tustric - Without You tab

SONG: WITHOUT YOU
ARTIST: TUSTRIC

Alright well, it's been a while, but here it is:

INTRO: 4x, Distorted

------------------------------------------------------------------|
------------------------------------------------------------------|
9-9-9-9-9-9-9-9---------------------------------------------------|
9-9-9-9-9-9-9-9--7-7-7-7-9-9-9-9----------------------------------|
7-7-7-7-7-7-7-7--7-7-7-7-9-9-9-9----------------------------------|
-----------------5-5-5-5-7-7-7-7----------------------------------| x4

VERSE 1: "If I had to live my life without you..."

-----------------------------------------------------------------|
-----------------------------------------------------------------|
9-9-9-9-9-9-9-9--------------------------------------------------|
9-9-9-9-9-9-9-9--7-7-7-7-9-9-9-9---------------------------------|
7-7-7-7-7-7-7-7--7-7-7-7-9-9-9-9---------------------------------|
-----------------5-5-5-5-7-7-7-7---------------------------------|

PRE-CHORUS: "To say I love you is still not a strong enough meaning..."
------------------------------------------------------------------|
------------------------------------------------------------------|
------------------------------------------------------------------|
7-7-7-7-7-7-7-7-9-9-9-9-9-9-9-9-----------------------------------|
7-7-7-7-7-7-7-7-9-9-9-9-9-9-9-9-----------------------------------|
5-5-5-5-5-5-5-5-7-7-7-7-7-7-7-7-----------------------------------|

CHORUS:

----------------------------------------------------------------------|
----------------------------------------------------------------------|
9-9-9-9-9-9-6-6-6-6-6-6-9-9-9-9-9-9-----------------------------------|
9-9-9-9-9-9-6-6-6-6-6-6-9-9-9-9-9-9--9-9-9-9-9-9----------------------|
7-7-7-7-7-7-4-4-4-4-4-4-7-7-7-7-7-7--9-9-9-9-9-9----------------------|
-------------------------------------7-7-7-7-7-7----------------------|

AFTER-CHORUS: (REPEAT INTRO)

2ND VERSE: (this gets a little tricky) [* = ring out for 4 sec.]

--------|--------------------------------------------------|
--------|----5-------5-------5-------5---------------------|
9*------|--6---6---6---6---6---6---6---6-------------------|
9----6-7|--------7-------6-------6-------------------------|
7--7----|--------------------------------------------------|
--------|--------------------------------------------------|

---------------------------------------------------------------|
----5-------5--------------------------------------------------|
--6---6---6---6---8-8-9-11-9-8---------------------------------|
4-------4-------9---------------9------x3----------------------|
---------------------------------------------------------------|
---------------------------------------------------------------|

AFTER-VERSE: Repeat intro x4 (slam strings)

PRE-CHORUS: *look above*

CHORUS: *look above*

OUTRO: REPEAT INTRO X2 THEN...

------------------------------------------------------------|
------------------------------------------------------------|
9*----------------------------------------------------------|
9-----------------------------------------------------------|
7-----------------------------------------------------------|
------------------------------------------------------------|

END


Lyrics:

1st verse:

If I had to live my life without you
Crying all day and all night is all I would do
My love for you is the most precious thing on Earth
Like our first kiss, or our child's birth
I want to do it all with you
I want to have kids and say I do
I'll be there for you if you should need me
Always in my heart, forever you will be

Pre-Chorus:

To say "I love you" is still not a strong enough meaning
If there were a word stronger than love, that would be my feeling!

Chorus:

If the road we walk looks far
Our love will lead away like a guiding star
I cherish every little moment with you
Every little word, everything you do
You're more beautiful than the reddest rose
Every time you look at me, my pain goes
I cant imagine a life without us together
I cant imagine us being less than forever

2nd verse:

When people ask me to describe love, one word is all I do
I think for a bit n' smile and say, "The only word is you"
When I look into your eyes, I can see the love that is to be
You're the air I breathe, the reason I live, you are my destiny
I wouldn't be able to live life without you
You're my girl ... My dream come true!

END
Tap to rate this tab
# A B C D E F G H I J K L M N O P Q R S T U V W X Y Z