Song name
# A B C D E F G H I J K L M N O P Q R S T U V W X Y Z

Misc Unsigned Bands - Forge A Plan - Growing Up tab

This is the 4th track on our demo.. I think hahahah. Well here you go.

P.S. this was created for Paul, but I would be impressed and flattered if anyone else 
learned it just for fun.

(Intro Acoustic Riff)   Repeat 4X

-------------Paul's--Guitar--Part--------------------------------------------

e|--0----------0--------0--0-------0--------7---------|
b|--------0----------0--0--------0-------0--0---------|
g|----------------------6-------------------6---------|
d|------6----------7----7------6-------7----7---------|
a|----7----------9------7----7-------9------7---------|
E|--7----------9-----------7-------9------------------|

(Intro Crunchy Riff)

e|-----------------------------------------------------------------------|
b|-----------------------------------------------------------------------|
g|-----------------------------------------------------------------------|
d|-------------------------------------2---11---7---7---2---11---7---7---|
a|---7---7---7---7/11---11/9---9/7---0---0----0---0---0---0----0---0-----|
E|-0---0---0---0------0------0-----0-------------------------------------|

e|-----------------------------------------------------------------------|
b|-----------------------------------------------------------------------|
g|-----------------------------------------------------------------------|
d|-------------------------------------2---11---7-----11-11-7-7----------|
a|---7---7---7---7/11---11/9---9/7---0---0----0---0---0--0--0-0----------|
E|-0---0---0---0------0------0-----0-------------------------------------|

(Intro/Chorus Pt. 1)

e|-------------------------------------------------------------------|
b|-------------------------------------------------------------------|
g|-------------------------------------------------------------------|
d|-2-2-2-2-2-2-2-2---------------------------------------------------|
a|-2-2-2-2-2-2-2-2--6--------4-------7------6-6---------6-6----------|
E|-0-0-0-0-0-0-0-0--4--0--0--2--0--0--5-5-5-----7-5-5-5-----7--------|

e|-------------------------------------------------------------------|
b|-------------------------------------------------------------------|
g|-------------------------------------------------------------------|
d|-2-2-2-2-2-2-2-2---------------------------------------------------|
a|-2-2-2-2-2-2-2-2--6--------4-------7------6-6---------6-6----------|
E|-0-0-0-0-0-0-0-0--4--0--0--2--0--0--5-5-5-----7-5-5-5-----7--------|
   ^
   | (Side Note): This first chord rings out longer than the rest
   |              but the second one rings out less than the rest.
                  That way it eventually catches up on time.

(Intro/Chorus Pt.2) Repeat 2X
e|-------------------------------------------------------------------|
b|--------------------------------------------9-9-9-9-9-9------------|
g|-9-9-9-9-9-9-9-9--13-13-13--11-11-11--9-9-9-9-9-9-9-9-9------------|
d|--------------------------------------6-7-7-7-7-7-7-7-7------------|
a|-7-7-7-7-7-7-7-7--11-11-11--9--9--9---7-9-9-9-9-9-9-9-9------------|
E|-------------------------------------------------------------------|

(Verse 1)

e|-0--0----------------0--2--0-----------------------------------------|
b|-0----0--------------0--0--0---------------0-------0-------0-------0-|
g|-1------1p2p1-----1--2--2--2--2p1------1-------1-------1-------1-----|
d|-2--------------2----2--2--2------2------2-------2-------2-------2---|
a|-2------------2------0--0--0-----------------------------------------|
E|-0------------------------------------0------0-------0-------0-------|

e|---------0---------0---------0----------0----0-------------|
b|-------0---------0---------0----------0---0--0----As-------|
g|---2---------2---------2----------2----------2----Time-----|
d|-----2---------2---------2----------2--------2----Moves----|
a|-0---------0---------0----------0------------0----On-------|
E|-----------------------------------------------------------|

(Chorus Pt. 1) X2

(Verse 2)
e|-0--0--------------0--2--0--------------------------------------------------|
b|-0----0------------0--0--0--------------------[REAPEAT X2]------------------|
g|-1------1p2p1---1--2--2--2--------------------------------------------------|
d|-2-------------2---2--2--2--m2-m2-m2-m2-m2-m2-m2-m2-m2-m2-m2-m2-m2-m2-m2----|m2
a|-2------------2----0--0--0--m2-m2-m2-m2-m2-m2-m2-m2-m2-m2-m2-m2-m2-m2-m2----|m2
E|-0--------------------------m0-m0-m0-m0-m0-m0-m0-m0-m0-m0-m0-m0-m0-m0-m0----|m0

e|------------------------------------------------------------------------|
b|----------------0--0----------------------Muted-Strum-16-More-Times-----|
g|-2-m2-m2-m2-m2--2--2--m2-m2-m2-m2-m2-m2-m2------------------------------|
d|-2-m2-m2-m2-m2--2--2--m2-m2-m2-m2-m2-m2-m2------------------------------|
a|-0-m0-m0-m0-m0--------m0-m0-m0-m0-m0-m0-m0------------------------------|
E|------------------------------------------------------------------------|

e|-0----------|
b|-0--As------|
g|-2--Time----|
d|-2--Moves---|
a|-0--On------|
E|------------|

(Chorus Pt. 1) X2

(Bridge)
e|------------------------------------------------------|
b|-------------------9-9--9-9-9--9-9-9--9-9-9-----------|
g|-8-8-8-9--8-8-8-9--9-9--9-9-9--9-9-9--9-9-9-----------|
d|-9-9-9-9--9-9-9-9--7-7--7-7-7--7-7-7--7-7-7-----------|
a|-9-9-9-9--9-9-9-9-------------------------------------|
E|------------------------------------------------------|

e|-------------------------0--------0-0-----------------|
b|-------------------------5-5-5-5--5-5-----------------|
g|-8-8-8-9--8-8-8-9--------6-6-6-6--6-6-----------------|
d|-9-9-9-9--9-9-9-9--6-6-6-6-6-6-6--6-6-----------------|
a|-9-9-9-9--9-9-9-9--4-4-4---4-4-4--4-4-----------------|
E|------------------------------------------------------|

e|------------------------------------------------------|
b|-------------------9-9--9-9-9--9-9-9--9-9-9-----------|
g|-8-8-8-9--8-8-8-9--9-9--9-9-9--9-9-9--9-9-9-----------|
d|-9-9-9-9--9-9-9-9--7-7--7-7-7--7-7-7--7-7-7-----------|
a|-9-9-9-9--9-9-9-9-------------------------------------|
E|------------------------------------------------------|

e|-------------------------0--------0-0--------0--------0-0------|
b|-------------------------5-5-5-5--5-5--------5-5-5-5--5-5------|
g|-8-8-8-9--8-8-8-9--------6-6-6-6--6-6--------6-6-6-6--6-6------|
d|-9-9-9-9--9-9-9-9--6-6-6-6-6-6-6--6-6--6-6-6-6-6-6-6--6-6------|
a|-9-9-9-9--9-9-9-9--4-4-4---4-4-4--4-4--0-0-0---0-0-0--0-0------|
E|---------------------------------------------------------------|

e|--------------------------------------------------------------|
b|--------------------------------------This--------------------|
g|-6--6-6-6--6-6--6-6-6--4--4-4-4--4-4--Should------------------|
d|-6--6-6-6--6-6--6-6-6--4--4-4-4--4-4--Be-So-------------------|
a|-7--7-7-7--7-7--7-7-7--6--6-6-6--6-6--Easy--------------------|
E|--------------------------------------------------------------|

e|-------0--------0-0--------0--------0-0------|
b|-------5-5-5-5--5-5--------5-5-5-5--5-5------|
g|-------6-6-6-6--6-6--------6-6-6-6--6-6------|
d|-6-6-6-6-6-6-6--6-6--6-6-6-6-6-6-6--6-6------|
a|-4-4-4---4-4-4--4-4--0-0-0---0-0-0--0-0------|
E|---------------------------------------------|

e|---------------------------------------------|
b|---------------------------------------------|
g|-6--6-6-6--6-6--6-6-6--4--4-4-4--4-4---------|
d|-6--6-6-6--6-6--6-6-6--4--4-4-4--4-4---------|
a|-7--7-7-7--7-7--7-7-7--6--6-6-6--6-6---------|
E|---------------------------------------------|

(Acoustic Intro But With A Little Distortion)

(End of Bridge)
e|-----------------0-0-0-0-0-0-0-0---[REPEAT BUT WITH 16TH NOTES]----|
b|-----------------0-0-0-0-0-0-0-0-----------------------------------|
g|-----------------6-6-6-6-6-6-6-6-----------------------------------|
d|-6-6-6-6-7-7-7-7-6-6-6-6-6-6-6-6-----------------------------------|
a|-6-6-6-6-7-7-7-7-7-7-7-7-7-7-7-7-----------------------------------|
E|-7-7-7-7-9-9-9-9---------------------------------------------------|

e|-0----------|
b|-0--As------|
g|-2--Time----|
d|-2--Moves---|
a|-0--On------|
E|------------|

(Chorus) X2

(Outro) X2
e|--------------------------------------------------------------|
b|--------------------------------------------------------------|
g|--------------------------------------------------------------|
d|--6-6-6--6-6-6--6-6-6--6-6-6--6-6-6--6-6-6--6-6-6--6-6-6------|
a|--7-7-7--7-7-7--7-7-7--7-7-7--7-7-7--7-7-7--7-7-7--7-7-7------|
E|--5-5-5--5-5-5--5-5-5--5-5-5--0-0-0--0-0-0--0-0-0--0-0-0------|
Tap to rate this tab
# A B C D E F G H I J K L M N O P Q R S T U V W X Y Z