Song name
# A B C D E F G H I J K L M N O P Q R S T U V W X Y Z

Misc Unsigned Bands - Redestroy The Scene - The Devil Inside tab

Redestroy The Scene - The Devil Inside

Tuning - Drop A
Dont listen to the letters of tuning in the tab


Intro
E|------|
B|------|
G|------|
D|--0~--|
A|--0~--|
E|--0~--|



E|---------------------------------|
B|---------------------------------|
G|---------------------------------|
D|---------------------------------|
A|---------------------------------|
E|-0-0-0-0-2-2-2-2-3-3-3-3-2-2-2-2-|
   * * * * * * * * * * * * * * * *


E|----------------|
B|----------------|
G|----------------|
D|----------------|
A|----------------|
E|-0-0----0-0-0-0-|
   * *    * * * *

  Verse 1

   Put everything behind you,                It's Me

E|-------------------------------------------------------------------------------|
B|-------------------------------------------------------------------------------|
G|-------------------------------------------------------------------------------|
D|-------------------------------------------------------------------------------|
A|-------------------------------------------------------------------------------|
E|--0-0----0-0-0-0----0-0-0-0----0-0-0-0----0-0----0-0-0-0----0-0-0-0----0-0-0-0-|
    * *    * * * *    * * * *    * * * *    * *    * * * *    * * * *    * * * *
   Your Worst Fucking golden machine

E|--------------------------------------|
B|--------------------------------------|
G|--------------------------------------|
D|--------------------------------------|
A|--------------------------------------|
E|-0-0----0-0-0-0----0-0-0-0----0-0-0-0-|
   * *    * * * *    * * * *    * * * *


 Pre Chorus


 Coming after all your grazing desires,
                      to the one last motherfucking flaming housefire
E|-------------------------------------------------------------------|
B|-------------------------------------------------------------------|
G|-------------------------------------------------------------------|
D|-------------------------------------------------------------------|
A|-2-2-2-2-3-3-3-3-2-2-2-2-3-3-3-3-2-2-2-2-3-3-3-3-2-2-2-2-3-3-3-3---|
E|-------------------------------------------------------------------|


  Chorus



 Just Look Inside,
 The Devil Inside,
 Dont Realize,
 The Devil Inside....
E|---------------------------------|
B|---------------------------------|
G|---------------------------------|
D|---------------------------------|
A|---------------------------------|
E|-0-0----0-0-0----0-0-0----0-0----|
   * *    * *      * *      * *

Verse 2

 Last fucking breath in your training concept,  You hope You burn


E|-------------------------------------------------------------------------------|
B|-------------------------------------------------------------------------------|
G|-------------------------------------------------------------------------------|
D|-------------------------------------------------------------------------------|
A|-------------------------------------------------------------------------------|
E|--0-0----0-0-0-0----0-0-0-0----0-0-0-0----0-0----0-0-0-0----0-0-0-0----0-0-0-0-|
    * *    * * * *    * * * *    * * * *    * *    * * * *    * * * *    * * * *

  In all of your turns

E|--------------------------------------|
B|--------------------------------------|
G|--------------------------------------|
D|--------------------------------------|
A|--------------------------------------|
E|-0-0----0-0-0-0----0-0-0-0----0-0-0-0-|
   * *    * * * *    * * * *    * * * *

Pre Chorus


 Every enemy trying to disapear,   Your eyes... You fucking lost peer....
E|-------------------------------------------------------------------|
B|-------------------------------------------------------------------|
G|-------------------------------------------------------------------|
D|-------------------------------------------------------------------|
A|-2-2-2-2-3-3-3-3-2-2-2-2-3-3-3-3-2-2-2-2-3-3-3-3-2-2-2-2-3-3-3-3---|
E|-------------------------------------------------------------------|




 Chorus




 Just Look Inside,
 The Devil Inside,
 Dont Realize,
 The Devil Inside....
E|---------------------------------|
B|---------------------------------|
G|---------------------------------|
D|---------------------------------|
A|---------------------------------|
E|-0-0----0-0-0----0-0-0----0-0----|
   * *    * *      * *      * *


Bridge



E|---------------------------------|
B|-10p9----------------------------|
G|------10p9--------------7h8p7p5--|
D|-----------10p9-----5h7----------|
A|---------------------------------|
E|---------------------------------|


 Guitar 2 played during solo


E|---------------------------------|
B|---------------------------------|
G|---------------------------------|
D|---------------------------------|
A|---------------------------------|
E|-3-3-3-3-2-2-2-2-0-0-0-0-1-1-1-1-|
   * * * * * * * * * * * * * * * *

 Outro

 Just Look Inside,
 The Devil Inside,
 Dont Realize,
 The Devil Inside....
E|---------------------------------|
B|---------------------------------|
G|---------------------------------|
D|---------------------------------|
A|---------------------------------|
E|-3-3-3-3-2-2-2-2-0-0-0-0-1-1-1-1-|
   * * * * * * * * * * * * * * * *
Tap to rate this tab
# A B C D E F G H I J K L M N O P Q R S T U V W X Y Z