Song name
# A B C D E F G H I J K L M N O P Q R S T U V W X Y Z

Misc Unsigned Bands - Guilty Verdikt - Outsider tab

-------------------------------------------------------------------------------
			         OUTSIDER - Guilty Verdikt
-------------------------------------------------------------------------------
Tabbed by: Lazar Blackfire
Email: lazarblackfire@yahoo.com

Tuning: Drop Db (Db, Ab, Db, Gb, Bb, e) 


Intro
eb|-------------------------------------|
Bb|-------------------------------------|
Gb|-2--10-9--5--8--4--7--5~-----------7-|
Db|-0--8--7--3--6--2--5--3~-----------5-|
Ab|-0--8--7--3--6--2--5--3~-----------5-|
Db|-0--8--7--3--6--2--5--3~-----------5-|

eb|------------------------------------------------|
Bb|------------------------------------------------|
Gb|-7-7---------------------7-7--------------------|
Db|-7-7---------------------7-7--------------------|
Ab|-5-5---------------------5-5--------------------|
Db|-----7-777-7-8-8-5-5-8-7-----7-777-7-3--3--5--5-|

eb|------------------------------------------------|
Bb|------------------------------------------------|
Gb|-7-7---------------------7-7--------------------|
Db|-7-7---------------------7-7---------3--3--5--1-|
Ab|-5-5---------------------5-5---------3--3--5--1-|
Db|-----7-777-7-8-8-5-5-8-7-----7-777-7-3--3--5--1-|

eb|-------------------------------------------------|
Bb|-------------------------------------------------|
Gb|-7-7----------------------7-7--------------------|
Db|-7-7-7-777-7-8-8-5-5-8-7--7-7-7-777-7-3--3--5--5-|
Ab|-5-5-7-777-7-8-8-5-5-8-7--5-5-7-777-7-3--3--5--5-|
Db|-----7-777-7-8-8-5-5-8-7------7-777-7-3--3--5--5-|

eb|----------------------------------------------------------------|
Bb|----------------------------------------------------------------|
Gb|-7-7-10-101010-10-12-12-15-15-15-15-7-7-10-101010-10-12-12-15\6-|
Db|----------------------------------------------------------------|
Ab|-5-5-8--8-8-8--8--10-10-13-13-13-13-5-5-8--8-8-8--8--10-10-13\4-|
Db|----------------------------------------------------------------|


1st Verse (x2)
eb|-----5-------5-------5-------5-------4-------4-------4-------4---|
Bb|-----6-------6-------6-------6-------5-------5-------5-------5---|
Gb|-----7-------7-------7-------7-------6-------6-------6-------6---|
Db|-----7-------7-------7-------7-------6-------6-------6-------6---|
Ab|-5-5---5-5-5---5-5-5---5-5-5---5-4-4---4-4-4---4-4-4---4-4-4---4-|
Db|-----------------------------------------------------------------|

eb|-----5-------5-------5-------5-------8--------8--------7-----7---|
Bb|-----6-------6-------6-------6-------9--------9--------8-----8---|
Gb|-----7-------7-------7-------7-------10-------10-------9-----9---|
Db|-----7-------7-------7-------7-------10-------10-------9-----9---|
Ab|-5-5---5-5-5---5-5-5---5-5-5---5-8-8----8-8-8----8-7-7---7-7---7-|
Db|-----------------------------------------------------------------|


Chorus
eb|-------------------------------------------------|
Bb|-------------------------------------------------|
Gb|-7-7----------------------7-7--------------------|
Db|-7-7-7-777-7-8-8-5-5-8-7--7-7-7-777-7-3--3--5--5-|
Ab|-5-5-7-777-7-8-8-5-5-8-7--5-5-7-777-7-3--3--5--5-|
Db|-----7-777-7-8-8-5-5-8-7------7-777-7-3--3--5--5-|

eb|-------------------------------------------------|
Bb|-------------------------------------------------|
Gb|-7-7----------------------7-7--------------------|
Db|-7-7-7-777-7-8-8-5-5-8-7--7-7-7-777-7-3--3--5--1-|
Ab|-5-5-7-777-7-8-8-5-5-8-7--5-5-7-777-7-3--3--5--1-|
Db|-----7-777-7-8-8-5-5-8-7------7-777-7-3--3--5--1-|


Interlude
eb|----------------------------------------------------------------|
Bb|----------------------------------------------------------------|
Gb|----------------------------------------------------------------|
Db|----------------------------------------------------------------|
Ab|-5-5-7-8-7-5-----5-5-7-8-7-5-----4-4-5-7-5-4-----4-4-5-7-4-0-7--|
Db|-------------7-5-------------7-5-------------7-5----------------|

eb|-----------------------------------------------------------------------|
Bb|-----------------------------------------------------------------------|
Gb|-----------------------------------------------------------------------|
Db|-------------------------------------10-11-----10-11-----9-10-----9-10-|
Ab|-5-5-7-8-7-5-----5-5-7-8-7-5-----8-8-------8-8-------7-7------7-7------|
Db|-------------7-5-------------7-5---------------------------------------|


2nd Verse
eb|-----5-------5-------5-------5-------4-------4-------4-------4---|
Bb|-----6-------6-------6-------6-------5-------5-------5-------5---|
Gb|-----7-------7-------7-------7-------6-------6-------6-------6---|
Db|-----7-------7-------7-------7-------6-------6-------6-------6---|
Ab|-5-5---5-5-5---5-5-5---5-5-5---5-4-4---4-4-4---4-4-4---4-4-4---4-|
Db|-----------------------------------------------------------------|

eb|---------------------------------8~----7~---|
Bb|-----------------6-6-6-6-6-6-6-6-9~----8~---|
Gb|-7-7-7-7-7-7-7-7-7-7-7-7-7-7-7-7-10~---9~---|
Db|-7-7-7-7-7-7-7-7-7-7-7-7-7-7-7-7-10~---9~---|
Ab|-5-5-5-5-5-5-5-5-5-5-5-5-5-5-5-5-8~----7~---|
Db|--------------------------------------------|


[Chorus] (x2)


Bridge
eb|-------------------------------|      |------------------|
Bb|-------------------------------|      |------------------|
Gb|-------------------------------|      |------------------|
Db|-0---------------------3-3-5-3-|      |------------------|
Ab|-0---------------------3-3-5-3-|      |------------------|
Db|-0-0-0-000-0-0-000-0-0-3-3-5-3-| x3   |-0-0-0-000-0-0-00-|

eb|-----------|         |---------------------------------|
Bb|-----------|         |-9-9-9-9-8-8-8-8-3-3-3-3-3-3-3-3-|
Gb|-----------|         |-8-8-8-8-7-7-7-7-2-2-2-2-2-2-2-2-|
Db|-6~-5~-0~--|         |-6-6-6-6-5-5-5-5-0-0-0-0-0-0-0-0-|
Ab|-6~-5~-0~--|         |-6-6-6-6-5-5-5-5-0-0-0-0-0-0-0-0-|
Db|-6~-5~-0~--| x4      |-6-6-6-6-5-5-5-5-0-0-0-0-0-0-0-0-| x4

eb|-----------------|
Bb|-----------------|
Gb|-7-7-7-7-8-8-9-9-|
Db|-5-5-5-5-6-6-7-7-|
Ab|-5-5-5-5-6-6-7-7-|
Db|-5-5-5-5-6-6-7-7-|

eb|-------------------------------------------------------------|
Bb|-------------------------------------------------------------|
Gb|-------------------------------------------------------------|
Db|-------------------------------------------------------------|
Ab|-8-8------------------------------8-8------------------------|
Db|-----10-101010-10-11-11-8-8-11-10-----10-101010-10-6--6--8-8-|


Last Chorus
eb|-----------------------------------------------------------------|
Bb|-----------------------------------------------------------------|
Gb|-10-10------------------------------10-10------------------------|
Db|-10-10-10-101010-10-11-11-8-8-11-10-10-10-10-101010-10-6--6--8-8-|
Ab|-8--8--10-101010-10-11-11-8-8-11-10-8--8--10-101010-10-6--6--8-8-|
Db|-------10-101010-10-11-11-8-8-11-10-------10-101010-10-6--6--8-8-|

eb|-----------------------------------------------------------------|
Bb|-----------------------------------------------------------------|
Gb|-10-10------------------------------10-10------------------------|
Db|-10-10-10-101010-10-11-11-8-8-11-10-10-10-10-101010-10-6--6--8-4-|
Ab|-8--8--10-101010-10-11-11-8-8-11-10-8--8--10-101010-10-6--6--8-4-|
Db|-------10-101010-10-11-11-8-8-11-10-------10-101010-10-6--6--8-4-|

eb|--------------------------------------------------|
Bb|--------------------------------------------------|
Gb|-10--10----------------------------10--10---------|
Db|-10--10--10--10--11--11--8-8-11-10-10--10--10--10-|
Ab|-8---8---10--10--11--11--8-8-11-10-8---8---10--10-|
Db|---------10--10--11--11--8-8-11-10---------10--10-|

eb|-----------------------------------------------------------------|
Bb|-----------------------------------------------------------------|
Gb|-----------------------------------------------------------------|
Db|-6-6-6-6-9-9-9-9-4-4-4-4-7-7-7-7-3-3-3-3-6-6-6-6-1-1-1-1-1-1-1-1-|
Ab|-6-6-6-6-9-9-9-9-4-4-4-4-7-7-7-7-3-3-3-3-6-6-6-6-1-1-1-1-1-1-1-1-|
Db|-6-6-6-6-9-9-9-9-4-4-4-4-7-7-7-7-3-3-3-3-6-6-6-6-1-1-1-1-1-1-1-1-|

eb|----------------------|
Bb|----------------------|
Gb|----------------------|
Db|-0-------0~~~------00-|
Ab|-0-------0~~~------00-|
Db|-0-------0~~~------00-|




************************************

| /   slide up
| \   slide down
| h   hammer-on
| p   pull-off
| ~   let ring
| +   harmonic
| x   Mute note
| b   Bend
| pb  Pre-bend
| br  Bend release
| pbr Pre-bend release
| brb Bend release bend

************************************
Tap to rate this tab
# A B C D E F G H I J K L M N O P Q R S T U V W X Y Z