Song name
# A B C D E F G H I J K L M N O P Q R S T U V W X Y Z

Misc Unsigned Bands - Omar Pedrini - Bambola tab

BELLA BAMBOLA by @orsar0

Intro
e|-3-3-3-3-3-3-3-3-3-|-3-3-3-3-3-3-3-3-3-|
B|-3-3-3-3-3-3-3-3-3-|-3-3-3-3-3-3-3-3-3-|
G|-------------------|-------------------|
D|-------------------|-3-2-------2-3-2---|
A|-3-2-------2-3-2---|-----3-2-3-------3-|
E|-----3-2-3-------3-|-------------------|

G
My name is Paolo
F
Il mio bar è nel centro
C
Sono qui che ti aspetto
G
Sono come la mamma ma non dico mai di no

Lavoro al banco
F
e non sono mai stanco
C
parlo di ogni argomento
G
per le donne un santo

al quale si confessano

-Chorus- (Suonato anche come l'intro...)
F C F C
Cosa bevi bella bambola
Bb F Bb F
Coca cola poco elettrica
Limonata un po' metallica
Sei straniera bella bambola
-End Chorus-

Mi sento un bonzo
Il mio shaker è il mondo
perchè uso il cervello
Ti preparo le mescolanze di gran qualità
Ascolto tutto, l'ho già detto son Santo
quando chiudo è un pianto
qui non c'è carosello e non vanno a letto no

-Chorus-
Chiudo e arrivo bella bambola
Una gita psichedelica
Se mi aspetti bella bambola
Apro una fontana magica
-End chorus-

-Chorus- (riff un pelo cambiato)
e|-------------------|-------------------|
B|-------------------|-------------------|
G|-------------------|-------------------|
D|-------------------|-3-2-------2-3-2---|
A|-3-2-------2-3-2---|-----3-2-3-------0-|
E|-----3-2-3-------3-|-------------------|

Cosa bevi bella bambola
Coca cola poco elettrica
Limonata un po' metallica
Sei straniera bella bambola (end on G)
-End Chorus-
Tap to rate this tab
# A B C D E F G H I J K L M N O P Q R S T U V W X Y Z