Song name
# A B C D E F G H I J K L M N O P Q R S T U V W X Y Z

Misc Unsigned Bands - Empyreal - Gnarly Sheen tab

D  :----------------------|-----------------|----------------------|
A  :----------------------|-----------------|----------------------|
F  :----------------------|-----------------|----------------------|
C  :----------------------|-----------------|----------------------|
G  :----------------------|-----------------|----------------------|
C  :0---0-0--0-0-0-0-0-0-0|-0-0-0*----------|0---0-0--0-0-0-0-0-0-0|

D  :-------------------|----------------------|-----------------|
A  :-------------------|----------------------|-----------------|
F  :-------------------|----------------------|-----------------|
C  :---------0-0-0*---*|----------------------|-----------------|
G  :---------0-0-0*---*|----------------------|-----------------|
C  :-0-0-0*--0-0-0*---*|0---0-0--0-0-0-0-0-0-0|-0-0-0*----------|

D  :----------------------|-----------------|-----------------|
A  :----------------------|-----------------|7---7---7------/-|
F  :----------------------|-----------------|---------------/-|
C  :----------------------|-----------------|5---5---5------/-|
G  :----------------------|-----------------|7---7---7------/-|
C  :0---0-0--0-0-0-0-0-0-0|-0-0-0-----------|-----------------|

D  :---------------------|--------------------|-------------------|
A  :/12---12-------------|--------------------|-------------------|
F  :/-x--------14---14---|19---19---19---19---|----19---19---19---|
C  :/10---10---12---12---|17---17---17---17---|----17---17---17---|
G  :/12---12---14---14---|19---19---19---19---|----19---19---19---|
C  :---------------------|--------------------|-------------------|

D  :-----------------|---------------------|--------------------|
A  :7---7---7------/-|/12---12-------------|--------------------|
F  :---------------/-|/-x--------14---14---|19---19---19---19---|
C  :5---5---5------/-|/10---10---12---12---|17---17---17---17---|
G  :7---7---7------/-|/12---12---14---14---|19---19---19---19---|
C  :-----------------|---------------------|--------------------|

D  :--------------------|----------------|------------------------|
A  :---------20-19------|7-7-7-7-7-7-7-7-|12-12-12-12--x--x--x--x-|
F  :19-------------19---|x---------------|--------x-*-14-14-14-14-|
C  :17------------------|5-5-5-5-5-5-5-5-|10-10-10-10-12-12-12-12-|
G  :19------------------|7-7-7-7-7-7-7-7-|12-12-12-12-14-14-14-14-|
C  :--------------------|----------------|------------------------|

D  :------------------------|------------------------|----------------|
A  :-x--x--x--x--x--x--x--x-|-x--x--x--x--x--x--x--x-|7-7-7-7-7-7-7-7-|
F  :19-19-19-19-19-19-19-19-|19-19-19-19-19-19-19-19-|x-x-x-x-x-x-x-x-|
C  :17-17-17-17-17-17-17-17-|17-17-17-17-17-17-17-17-|5-5-5-5-5-5-5-5-|
G  :19-19-19-19-19-19-19-19-|19-19-19-19-19-19-19-19-|7-7-7-7-7-7-7-7-|
C  :------------------------|------------------------|----------------|

D  :------------------------|------------------------|
A  :12-12-12-12--x----------|------------------------|
F  :------------14-14-14-14-|19-19-19-19-19-19-19-19-|
C  :10-10-10-10-12-12-12-12-|17-17-17-17-17-17-17-17-|
G  :12-12-12-12-14-14-14-14-|19-19-19-19-19-19-19-19-|
C  :------------------------|------------------------|

D  :------------------------|-----------------|---------------------|
A  :------------------------|7---7---7------/-|/12---12-------------|
F  :19-19-19-19-19-19-19-19-|---------------/-|/-x--------14---14---|
C  :17-17-17-17-17-17-17-17-|5---5---5------/-|/10---10---12---12---|
G  :19-19-19-19-19-19-19-19-|7---7---7------/-|/12---12---14---14---|
C  :------------------------|-----------------|---------------------|

D  :--------------------|-------------------|-----------------|
A  :--------------------|-------------------|7---7---7------/-|
F  :19---19---19---19---|----19---19---19---|---------------/-|
C  :17---17---17---17---|----17---17---17---|5---5---5------/-|
G  :19---19---19---19---|----19---19---19---|7---7---7------/-|
C  :--------------------|-------------------|-----------------|

D  :---------------------|--------------------|-------------------|
A  :/12---12-------------|--------------------|-------------------|
F  :/-x--------14---14---|19---19---19---19---|----19---19---19---|
C  :/10---10---12---12---|17---17---17---17---|----17---17---17---|
G  :/12---12---14---14---|19---19---19---19---|----19---19---19---|
C  :---------------------|--------------------|-------------------|

D  :----------------|----------------|----------------|----------------|
A  :----------------|8--7------------|----------------|----------------|
F  :*-------7-------|------7-9--7--0-|--------7-------|--------7---x---|
C  :*--5-------5----|----------------|----5-----5---5-|----5-----5---5-|
G  :9-----9-------9-|----------------|--9---9-----9---|--9---9-----9---|
C  :----------------|----------------|----------------|----------------|

D  :----------------|----------------|----------------|----------------|
A  :----------------|8--7--x---------|----------------|----------------|
F  :--------7-------|------7-9--7--0-|--------7-------|--------7--x----|
C  :----5-----5---5-|----------------|----5-----5---5-|----5-----5---5-|
G  :--9---9-----9---|----------------|--9---9-----9---|--9---9-----9---|
C  :----------------|----------------|----------------|----------------|

D  :----------------|-----------------|----------------|----------------|
A  :----------------|8--7--8-10--8----|----------------|----------------|
F  :--------7-------|---------------7-|-x------7-------|--------7-------|
C  :----5-----5---5-|-----------------|----5-----5---5-|----5-----5---5-|
G  :--9---9-----9---|-----------------|--9---9-----9---|--9---9-----9---|
C  :----------------|-----------------|----------------|----------------|

D  :----------------|----------------|----------------|----------------|
A  :----------------|8--7------------|----------------|----------------|
F  :--------7-------|------7-9--7--0-|--------7-------|--------7-------|
C  :----5-----5---5-|----------------|----5-----5---5-|----5-----5---5-|
G  :--9---9-----9---|----------------|--9---9-----9---|--9---9-----9---|
C  :----------------|----------------|----------------|----------------|

D  :----------------|-----------------|----------------|----------------|
A  :----------------|8--7--8-10--8----|7---------------|----------------|
F  :--------7-------|---------------7-|----------------|----------------|
C  :----5-----5---5-|-----------------|5---------------|----------------|
G  :--9---9-----9---|-----------------|7---------------|----------------|
C  :----------------|-----------------|----------------|----------------|

D  :----------------|----------------|----------------|----------------|
A  :----------------|----------------|7---------------|----------------|
F  :7---------------|--------7-------|----------------|----------------|
C  :5---------------|---5-------5----|5---------------|----------------|
G  :3---------------|3-----3-------3-|7---------------|----------------|
C  :----------------|----------------|----------------|----------------|

D  :-----------------|----------------|----------------|----------------|
A  :-----------------|----------------|----------------|----------------|
F  :12---------------|----------------|----------------|----------------|
C  :10---------------|----------------|----------------|----------------|
G  :12---------------|----------------|----------------|----------------|
C  :-----------------|----------------|----------------|----------------|

D  :----------------|----------------|----------------|----------------|
A  :----------------|----------------|----------------|----------------|
F  :----------------|----------------|----------------|----------------|
C  :----------------|----------------|----------------|----------------|
G  :----------------|----------------|----------------|----------------|
C  :----------------|----------------|----------------|----------------|

D  :----------------|----------------|-----------------|
A  :----------------|----------------|7---7---7------/-|
F  :----------------|9-9-9-9-9-9-9-7-|---------------/-|
C  :----------------|----------------|5---5---5------/-|
G  :----------------|----------------|7---7---7------/-|
C  :----------------|----------------|-----------------|

D  :---------------------|--------------------|-------------------|
A  :/12---12-------------|--------------------|-------------------|
F  :/-x--------14---14---|19---19---19---19---|----19---19---19---|
C  :/10---10---12---12---|17---17---17---17---|----17---17---17---|
G  :/12---12---14---14---|19---19---19---19---|----19---19---19---|
C  :---------------------|--------------------|-------------------|

D  :-----------------|---------------------|--------------------|
A  :7---7---7------/-|/12---12-------------|--------------------|
F  :---------------/-|/-x--------14---14---|19---19---19---19---|
C  :5---5---5------/-|/10---10---12---12---|17---17---17---17---|
G  :7---7---7------/-|/12---12---14---14---|19---19---19---19---|
C  :-----------------|---------------------|--------------------|

D  :-----------------------|----------------|------------------------|
A  :20-20-20-19-19-19------|7-7-7-7-7-7-7-7-|12-12-12-12-------------|
F  :------------------19---|----------------|------------14-14-14-14-|
C  :-----------------------|5-5-5-5-5-5-5-5-|10-10-10-10-12-12-12-12-|
G  :-----------------------|7-7-7-7-7-7-7-7-|12-12-12-12-14-14-14-14-|
C  :-----------------------|----------------|------------------------|

D  :------------------------|------------------------|----------------|
A  :------------------------|------------------------|7-7-7-7-7-7-7-7-|
F  :19-19-19-19-19-19-19-19-|19-19-19-19-19-19-19-19-|----------------|
C  :17-17-17-17-17-17-17-17-|17-17-17-17-17-17-17-17-|5-5-5-5-5-5-5-5-|
G  :19-19-19-19-19-19-19-19-|19-19-19-19-19-19-19-19-|7-7-7-7-7-7-7-7-|
C  :------------------------|------------------------|----------------|

D  :------------------------|------------------------|
A  :12-12-12-12-------------|------------------------|
F  :------------14-14-14-14-|19-19-19-19-19-19-19-19-|
C  :10-10-10-10-12-12-12-12-|17-17-17-17-17-17-17-17-|
G  :12-12-12-12-14-14-14-14-|19-19-19-19-19-19-19-19-|
C  :------------------------|------------------------|

D  :------------------------|-----------------|---------------------|
A  :------------------------|7---7---7------/-|/12---12-------------|
F  :19-19-19-19-19-19-19-19-|---------------/-|/-x--------14---14---|
C  :17-17-17-17-17-17-17-17-|5---5---5------/-|/10---10---12---12---|
G  :19-19-19-19-19-19-19-19-|7---7---7------/-|/12---12---14---14---|
C  :------------------------|-----------------|---------------------|

D  :--------------------|-------------------|-----------------|
A  :--------------------|-------------------|7---7---7------/-|
F  :19---19---19---19---|----19---19---19---|---------------/-|
C  :17---17---17---17---|----17---17---17---|5---5---5------/-|
G  :19---19---19---19---|----19---19---19---|7---7---7------/-|
C  :--------------------|-------------------|-----------------|

D  :---------------------|--------------------|-----------------|
A  :/12---12-------------|--------------------|-----------------|
F  :/-x--------14---14---|19---19---19---19---|19---------------|
C  :/10---10---12---12---|17---17---17---17---|17---------------|
G  :/12---12---14---14---|19---19---19---19---|19---------------|
C  :---------------------|--------------------|-----------------|

D  :----------------|----------------|----------------|----------------|
A  :----------------|----------------|----------------|----------------|
F  :------x---------|----------------|----------------|----------------|
C  :0---------------|----------------|----------------|----------------|
G  :0---------------|----------------|----------------|----------------|
C  :0---------------|----------------|----------------|----------------|

D  :-------------------------|------------------|------------------|
A  :-------------------------|------------------|------------------|
F  :-------------------------|------------------|------------------|
C  :0-0-0-0-0*----0-0-0-0-0-0|0*-0*-0*0-0*0*0-0*|0-0*0-0*----------|
G  :0-0-0-0-0*----0-0-0-0-0-0|0*-0*-0*0-0*0*0-0*|0-0*0-0*----------|
C  :0-0-0-0-0*----0-0-0-0-0-0|0*-0*-0*0-0*0*0-0*|0-0*0-0*----------|

D  :----------------|-------------------------|------------------|
A  :----------------|-------------------------|------------------|
F  :----------------|-------------------------|------------------|
C  :----------------|0-0-0-0-0*----0-0-0-0-0-0|0*-0*-0*0-0*0*0-0-|
G  :----------------|0-0-0-0-0*----0-0-0-0-0-0|0*-0*-0*0-0*0*0-0-|
C  :----------------|0-0-0-0-0*----0-0-0-0-0-0|0*-0*-0*0-0*0*0-0-|

D  :------------------|----------------|-----------------------|
A  :------------------|----------------|-----------------------|
F  :------------------|----------------|-----------------------|
C  :0-0*0-0**---------|----------------|0-0-0-0-----0-0-0-0-0-0|
G  :0-0*0-0**---------|----------------|0-0-0-0-----0-0-0-0-0-0|
C  :0-0*0-0**---------|----------------|0-0-0-0-----0-0-0-0-0-0|

D  :------------------|------------------|----------------|
A  :------------------|------------------|----------------|
F  :------------------|------------------|----------------|
C  :0*-0*-0*0-0*0*0-0*|0-0*0-0*----------|----------------|
G  :0*-0*-0*0-0*0*0-0*|0-0*0-0*----------|----------------|
C  :0*-0*-0*0-0*0*0-0*|0-0*0-0*----------|----------------|

D  :-------------------------|------------------|------------------|
A  :-------------------------|------------------|------------------|
F  :-------------------------|------------------|------------------|
C  :0-0-0-0-0*----0-0-0-0-0-0|0*-0*-0*0-0*0*0-0-|0-0*0-0**---------|
G  :0-0-0-0-0*----0-0-0-0-0-0|0*-0*-0*0-0*0*0-0-|0-0*0-0**---------|
C  :0-0-0-0-0*----0-0-0-0-0-0|0*-0*-0*0-0*0*0-0-|0-0*0-0**---------|

D  :----------------|
A  :----------------|
F  :----------------|
C  :------------0-*-|
G  :------------0-*-|
C  :------------0-*-|
Tap to rate this tab
# A B C D E F G H I J K L M N O P Q R S T U V W X Y Z