Song name
# A B C D E F G H I J K L M N O P Q R S T U V W X Y Z

Misc Unsigned Bands - Bpr Jam - Bpr Jam tab

e|----------------|------------------------|-------------------------------------------|
B|----------------|------------------------|-------------------------------------------|
G|----------------|------------------------|-------------------------------------------|
D|4---4----6----7-|0-----0-----2-----4----|-7----7-----9-----11----9----7----9----6----|
A|----------------|------------------------|-------------------------------------------|
D|-4-4--4-4--4-4--|--0-0---0-0---0-0---0-0|--7-7---7-7---7-7---7-7--7-7--7-7--6-6------|


e|---------------------------|---------------------------|----------------------------|
B|---------------------------|---------------------------|----------------------------|
G|---------------------------|---------------------------|----------------------------|
D|-4--4---4-4-4---4---4-4-4-|-0--0---0-0-0---0---0-0-0-|-7--7---7-7-7---7---7-7-7-----|
A|-4--4---4-4-4---4---4-4-4-|-0--0---0-0-0---0---0-0-0-|-7--7---7-7-7---7---7-7-7-----|
D|-4--4---4-4-4---4---4-4-4-|-0--0---0-0-0---0---0-0-0-|-7--7---7-7-7---7---7-7-7-----|


|------------------------|
|------------------------|
|------------------------|
|-6-6--14s---------------|
|-6-6--14s----------4----|
|-6-6--14s--0-h4-h7--7-4-|




h: hammer on

.  : palm mute
Tap to rate this tab
 
# A B C D E F G H I J K L M N O P Q R S T U V W X Y Z