Song name
# A B C D E F G H I J K L M N O P Q R S T U V W X Y Z

Misc Unsigned Bands - Keith Sharp - A Salty Sailors Song tab

e|----------------------------------------------------------------------|
b|----------------------------------------------------------------------|
g|----------------------------------------------------------------------|
d|-------------0---0------------0-------------9-----------------0-0-----|
a|--7-8-10-8-7---2---7-8-10-8-7---7-7-8-10-12---12-10-8-7-10-12-----7-8-|
e|----------------------------------------------------------------------|

e|----------------------------------------------------------------------|
b|----------------------------------------------------------------------|
g|----------------------------------------------------------------------|
d|--------0-----------0-----------------9---------0-------0-------------|
a|-10-8-7---2-0---0-2---7-8-7-7-8-10-12---10-12-8---8-7-7---7-8-10-12-8-|
e|--------------3-------------------------------------------------------|

e|----------------------------------------------------------------------|
b|----------------------------------------------------------------------| 
g|----------------------------------------------------------------------|
d|---0------------------0-------9---------------9-------0-0------------0|
a|-7---7-8-10-12-10-8-7---10-12---12-10-8-10-12---10-12-----7-8-10-8-7--|
e|----------------------------------------------------------------------|

e|---------------------------------------------------0-0-0--------------|
b|------------------------------------------------------------0----0----|
g|----------------------------------------------------------------------|
d|-----------0-----------------9---------0-------0---------12---12---12-|
a|-2-0---0-2---7-8-7-7-8-10-12---10-12-8---8-7-7---7--------------------|
e|-----3----------------------------------------------------------------|

e|----------------------------------------------------------------------|
b|-0--------------------------------------------------------------------|
g|----------------------------------------------------------------------|
d|------------9---------------9-------0-0------------0-9----------9-0---|
a|---10-10-12---12-10-8-10-12---10-12-----7-8-10-8-7-----12-10-12-----7-|
e|----------------------------------------------------------------------|

e|-------------------------------------0-0-0----------------------------|
b|----------------------------------------------0----0----0-------------|
g|----------------------------------------------------------------------|
d|---------------9---------0-------0---------12---12-----------------9--|
a|-8-7-7-8-10-12---10-12-8---8-7-7---7-----------------12---10-10-12--12|
e|----------------------------------------------------------------------|

e|----------------------------------------------------------------------|
b|----------------------------------------------------------------------|
g|----------------------------------------------------------------------|
d|-------------9-------0-0------------0-----------0-----------------9---|
a|-10-8-10-12----10-12-----7-8-10-8-7---2-0---0-2---7-8-7-7-8-10-12---10|
e|------------------------------------------3---------------------------|

e|----------------------------------------------------------------------|
b|----------------------------------------------------------------------|
g|----------------------------------------------------------------------|
d|------0-------0-------------9---------0-------------------------------|
a|-12-8---8-7-7---2-7-8-10-12---10-12-8---8-7-7-7-----------------------|
e|----------------------------------------------------------------------|
Tap to rate this tab
 
# A B C D E F G H I J K L M N O P Q R S T U V W X Y Z