Song name
# A B C D E F G H I J K L M N O P Q R S T U V W X Y Z

Misc Unsigned Bands - Joe Daniels - It Gets Better tab

Hey there, this is the tab for It Gets Better, a song by Joe Daniels.

This is the guitar part that plays throughout the song, bass parts should just play the root notes!

I know this is correct, as I wrote the song :) 

CAPO ON 4

Intro/Verse Riff:

 C        C/B      Am       C/B

e|---3----|---3----|---3----|---3----|
B|-3---3-3|-3---3-3|-3---3-3|-3---3-3|
G|--------|--------|--------|--------|       x2 for intro
D|--------|--------|--------|--------|       x2 for each verse
A|3-3-3-3-|2-2-2-2-|0-0-0-0-|2-2-2-2-|
E|--------|--------|--------|--------|

Chorus Riff:

 Am               C/B              C                G        G/F#
 
e|----------------|----------------|----------------|--------|--------|
B|-3-3-3-3-3-3-3-3|-3-3-3-3-3-3-3-3|-3-3-3-3-3-3-3-3|-3-3-3-3|-3-3-3-3|
G|----------------|----------------|----------------|--------|--------|        x2 for each chorus
D|2-2-2-2-2-2-2-2-|0-0-0-0-0-0-0-0-|0-0-0-0-0-0-0-0-|--------|--------|
A|0-0-0-0-0-0-0-0-|2-2-2-2-2-2-2-2-|3-3-3-3-3-3-3-3-|0-0-0-0-|0-0-0-0-|
E|----------------|----------------|----------------|3-3-3-3-|2-2-2-2-|

Bridge:

 C        C/B      Am       C/B

e|--------|--------|--------|--------|
B|--------|--------|--------|--------|
G|--------|--------|--------|--------|      x2 then verse riff twice before final chorus!
D|--------|--------|--------|--------|
A|3-------|2-------|0-------|2-------|
E|--------|--------|--------|--------|

Hopefully that all makes sense!

Lyrics:

Verse 1:
You're scared to walk the corridors
'Cause of what they all say
You harm yourself til you're sore
But it won't ease the pain
Oh oh, won't ease the pain.

Verse 2:
You cry yourself to sleep
Every single night
The names cut you deep
You feel like giving up the fight
Oh oh, giving up the fight.

Chorus:
Well hold on
Keep strong
'Cause you are not alone
Dry your eyes
Don't you cry
It gets better, you know.

Verse 3:
You're so confused you don't know why
They cast you out
We all live under the same sky
But you begin to doubt
Oh oh, you begin to doubt.

Verse 4:
No one listens to your calls
You shout so loud
But you're trapped inside these walls
Hiding from the crowd
Oh oh, hiding from the crowd.

Chorus
Bridge
Chorus


And that's that, hope you like the song and can understand this tab!

For any queries, please contact me at joedaniels@hotmail.co.uk

Joe D
(www.joedanielsmusic.com)
Tap to rate this tab
 
# A B C D E F G H I J K L M N O P Q R S T U V W X Y Z