Song name
# A B C D E F G H I J K L M N O P Q R S T U V W X Y Z

Misc Unsigned Bands - Guilty Verdikt - Cold Explosion tab

-------------------------------------------------------------------------------
			     COLD EXPLOSION - Guilty Verdikt
-------------------------------------------------------------------------------

Tabbed By : 
e-mail: guilty_verdikt7@yahoo.com

Tuning: Drop D 1/2 step down (Db Ab Db Gb Bb Eb)


Intro/Main Riff  
Eb|-----------------------------------------------------------------|
Bb|-----------------------------------------------------------------|      
gb|-2-2-2-2-2-2-2-2-2-2-2-2-2-2-2-2-5-5-5-5-5-5-5-5-5-5-5-5-5-5-5-5-|
db|-0-0-0-0-0-0-0-0-0-0-0-0-0-0-0-0-3-3-3-3-3-3-3-3-3-3-3-3-3-3-3-3-|
ab|-0-0-0-0-0-0-0-0-0-0-0-0-0-0-0-0-3-3-3-3-3-3-3-3-3-3-3-3-3-3-3-3-|
Db|-0-0-0-0-0-0-0-0-0-0-0-0-0-0-0-0-3-3-3-3-3-3-3-3-3-3-3-3-3-3-3-3-| 

Eb|-----------------------------------------------------------------|
Bb|-----------------------------------------------------------------|      
gb|-4-4-4-4-4-4-4-4-4-4-4-4-4-4-4-4-7-7-7-7-7-7-7-7-8-8-8-8-7-7-7-7-|
db|-2-2-2-2-2-2-2-2-2-2-2-2-2-2-2-2-5-5-5-5-5-5-5-5-5-5-5-5-5-5-5-5-|
ab|-2-2-2-2-2-2-2-2-2-2-2-2-2-2-2-2-5-5-5-5-5-5-5-5-5-5-5-5-5-5-5-5-|
Db|-2-2-2-2-2-2-2-2-2-2-2-2-2-2-2-2-5-5-5-5-5-5-5-5-5-5-5-5-5-5-5-5-| 



1st Verse (x2)
Eb|-------------------------------------------------------------|
Bb|-------------------------------------------------------------|      
gb|-2--------------2--------------5--------------5--------------|
db|-0--------------0--------------3--------------3--------------|
ab|-0--------------0--------------3--------------3--------------|
Db|-0--0-0-0-0-0-0-0--0-0-0-0-0-0-3--3-3-3-3-3-3-3--3-3-3-3-3-3-| 
       x x x x x x    x x x x x x    x x x x x x    x x x x x x 

Eb|----------------------------------------------------------------|
Bb|----------------------------------------------------------------|      
gb|-4--------------4--------------7--------------8--------7--------|
db|-2--------------2--------------5--------------5--------5--------|
ab|-2--------------2--------------5--------------5--------5--------|
Db|-2--2-2-2-2-2-2-2--2-2-2-2-2-2-5--5-5-5-5-5-5-5--5-5-5-5--5-5-5-|
       x x x x x x    x x x x x x    x x x x x x    x x x    x x x


Interlude
Eb|---------------------------------------------------------|
Bb|-------------------------------------------------4-4-4-4-|      
gb|-3-3-3-3-3-3-3-3-3-3-3-3-3-3-3-3-3-3-3-3-3-3-3-3-7-7-7-7-|
db|-x-x-x-x-x-x-x-x-x-x-x-x-x-x-x-x-x-x-x-x-x-x-x-x---------|
ab|-1-1-1-1-1-1-1-1-1-1-1-1-1-1-1-1-1-1-1-1-1-1-1-1---------|
Db|---------------------------------------------------------| 


Chorus (x2)
Eb|-----------------------------------------------------------------|
Bb|-----------------------------------------------------------------|      
gb|-5-5-5-5-5-5-5-5-7-7-7-7-9-9-9-9-4-4-4-4-4-4-4-4-7-7-7-7-9-9-9-9-|
db|-x-x-x-x-x-x-x-x-x-x-x-x-x-x-x-x-x-x-x-x-x-x-x-x-x-x-x-x-x-x-x-x-|
ab|-3-3-3-3-3-3-3-3-5-5-5-5-7-7-7-7-2-2-2-2-2-2-2-2-5-5-5-5-7-7-7-7-|
Db|-----------------------------------------------------------------| 

Eb|---------------------------------------------------------------------|
Bb|---------------------------------------------------------------------|
gb|-2-2-2-2-2-2-2-2-7-7-7-7-9-9-9-9-10-10-10-10-9-9-9-9-7-7-7-7-9-9-9-9-|
db|-x-x-x-x-x-x-x-x-x-x-x-x-x-x-x-x-x--x--x--x--x-x-x-x-x-x-x-x-x-x-x-x-|
ab|-0-0-0-0-0-0-0-0-5-5-5-5-7-7-7-7-8--8--8--8--7-7-7-7-5-5-5-5-7-7-7-7-|
Db|---------------------------------------------------------------------| 

Break
Eb|------|
Bb|------|      
gb|------|
db|-0~~--|
ab|-0~~--|
Db|-0~~--| 


[Main Riff]


2nd Verse
Eb|-------------------------------------------------------------|
Bb|-------------------------------------------------------------|      
gb|-2--------------2--------------5--------------5--------------|
db|-0--------------0--------------3--------------3--------------|
ab|-0--------------0--------------3--------------3--------------|
Db|-0--0-0-0-0-0-0-0--0-0-0-0-0-0-3--3-3-3-3-3-3-3--3-3-3-3-3-3-| 
       x x x x x x    x x x x x x    x x x x x x    x x x x x x 
Eb|-----------------------------------------------------------------|
Bb|-----------------------------------------------------------------|      
gb|-4--------------4--------------7--------------8------\\-------\\-|
db|-2--------------2--------------5--------------5------\\scratch\\-|
ab|-2--------------2--------------5--------------5------\\-------\\-|
Db|-2--2-2-2-2-2-2-2--2-2-2-2-2-2-5--5-5-5-5-5-5-5--5-5-------------|
       x x x x x x    x x x x x x    x x x x x x    x x
Eb|---------------------------------------------------------------|
Bb|---------------------------------------------------------------|      
gb|-2---2---2---2---2---2---2---2---5---5---5---5---5---5---5---5-|
db|-0---0---0---0---0---0---0---0---3---3---3---3---3---3---3---3-|
ab|-0---0---0---0---0---0---0---0---3---3---3---3---3---3---3---3-|
Db|-0---0---0---0---0---0---0---0---3---3---3---3---3---3---3---3-| 

Eb|---------------------------------------------------------------|
Bb|---------------------------------------------------------------|      
gb|-4---4---4---4---4---4---4---4---7---7---7---7---8---8---7---7-|
db|-2---2---2---2---2---2---2---2---5---5---5---5---5---5---5---5-|
ab|-2---2---2---2---2---2---2---2---5---5---5---5---5---5---5---5-|
Db|-2---2---2---2---2---2---2---2---5---5---5---5---5---5---5---5-|


[Interlude]

[Chorus]

Eb|--------0~-------|
Bb|----------0~-----|      
gb|------------0~---|
db|-0~~----------0~-|
ab|-0~~-------------|
Db|-0~~-------------| 


Breakdown
Eb|--------------------------------------------------------------|
Bb|--------------------------------------------------------------|      
gb|--------------------------------------------------------------|
db|-3-2-----0---------------0---1-0-3-2-----0--------------------|
ab|-3-2-----0---------------0---1-0-3-2-----0---------------2~---|
Db|-3-2-0-0-0-0-0-0-0-0-0-0-0-0-1-0-3-2-0-0-0-0-0-0-0-0-0-0---3~-| x4
                                                            + +
Eb|-------------------------------|
Bb|-------------------------------|      
gb|-------------------------------|
db|-0-0-0---0-0-0---0-0-0---0-0-1-|
ab|-0-0-0---0-0-0---0-0-0---0-0-1-|
Db|-0-0-0---0-0-0---0-0-0---0-0-1-| x4


Second Break
Eb|------------------------------------------------|
Bb|------------------------------------------------|      
gb|-5--5--5--5--5--5--5--5-------------------------|
db|-5--5--5--5--5--5--5--5--2--2--2--2--2--2--2--2-|
ab|-3--3--3--3--3--3--3--3--2--2--2--2--2--2--2--2-|
Db|-------------------------2--2--2--2--2--2--2--2-| 
       x  x  x  x  x  x  x     x  x  x  x  x  x  x

Eb|------------------------------------------------|
Bb|------------------------------------------------|      
gb|-2--2--2--2--2--2--0--0-------------------------|
db|-2--2--2--2--2--2--0--0--3--3--3--3--5--5--5--5-|
ab|-0--0--0--0--0--0--0--0--3--3--3--3--5--5--5--5-|
Db|-------------------------3--3--3--3--5--5--5--5-| 
       x  x  x  x  x  x  x  x  x  x  x  x  x


[Chorus]


Ending
Eb|----------------------------------------------------------------------|
Bb|----------------------------------------------------------------------|
gb|-5-5-5-5-5-5-5-5-5-5-5-5-5-5-5-5-5-5-5-5-5-5-5-5-5-5-5-5-5-5-5-5-4~~~-|
db|-x-x-x-x-x-x-x-x-x-x-x-x-x-x-x-x-x-x-x-x-x-x-x-x-x-x-x-x-x-x-x-x-x----|
ab|-3-3-3-3-3-3-3-3-3-3-3-3-3-3-3-3-3-3-3-3-3-3-3-3-3-3-3-3-3-3-3-3-2~~~-|
Db|----------------------------------------------------------------------| 





=g
| /  slide up
| \  slide down
| h  hammer-on
| p  pull-off
| ~  let ring
| ~+  harmonic
| x  Mute note
Tap to rate this tab
 
# A B C D E F G H I J K L M N O P Q R S T U V W X Y Z