Song name
# A B C D E F G H I J K L M N O P Q R S T U V W X Y Z

Misc Unsigned Bands - Omar Pedrini - Sangue Impazzito tab

SANGUE IMPAZZITO

Intro: | Bm | Bm | G | A7/4 A7 | Bm Bm4 |

Bm
Uomini, domenica
G
gente che allegra va
A4 A7 Bm4 Bm
risveglia la città
Bm
dormono le fabbriche
G
in giro ancora io
A4 A7 Bm4 Bm
vivo non lo so
A4 A7 A9
e incontro anche te
A Bm4 Bm
che corri a pregare un po' Dio
A4 A7 A9
la strada la so...
A Bm Bm7/A G7+
e penso che un tempo quel tempio era mio
A G/A A4 A Bm G/A G9 G7+
e mi chiedo perché un giorno ho detto addio

| Bm G/A | G9 G7+ |

Bm
Corro via, ma non so se
G
fuggire o rincorrere
A4 A7 Bm4 Bm
qualcosa forse chi
Bm
sono qui e dentro me
G
sangue impazzito che
A4 A7 Bm4 Bm
mi spinge fino a voi
A4 A7 A9
correte di più
A Bm4 Bm
sognando un futuro così
A4 A7 A9
vi guardo da qui
A Bm Bm7/A G7+
e penso che un tempo quel campo era mio
A G/A A4 A Bm Bm7/A G7+ A
e mi chiedo perché un giorno ho detto addio

Guitar solo: | Bm Bm7/A | G7+ A | Bm Bm7/A | G7+ A | (3 times)
| Bm Bm7/A | G |

| A7/4 A7 |

G/A A G/A A
Un giorno ho detto...


- Chords used:

Bm Bm4 G A A4 A7 A7/4 A9 Bm7/A G7+ G9
e:-2----0----3----0----0----0----0----0----2----0----3-|
B:-3----3----0----2----3----2----3----0----0----3----0-|
G:-4----4----0----2----2----0----0----2----2----4----2-|
D:-4----4----0----2----2----2----2----2----0----4----0-|
A:-2----2----2----0----0----0----0----0----2----x----x-|
E:-x----x----3----x----x----x----x----x----x----3----3-|


Legend
------

h = hammer-on
p = pull-off
b = bend
r = bend release
/ = slide up/down
<5> = natural harmonic
[5] = artifical harmonic
~ = vibrato
tr = trill


N.B. Play each thirty-second note with hammer-on or pull-off (depending
on the situation)

-=1/32

INTRO (Acoustic guitar)

Bm Bm
v v v v v v v v
e:0---------------2-----------2---|0---------------2-------2--0----|
B:------0-----3p0-------3---------|------0-----3p0---------3--3--3-|
G:--------4---------------4-------|--------4---------------------4-|
D:--------------------------------|--------------------------------|
A:2---------------2---------------|2---------------2---------------|
E:--------------------------------|--------------------------------|
Triplet

G A7/4 A7
v v v v v v v v
e:------0---------------0---------|------0-------------------------|
B:3-----------0---0-----------0---|3-----------2-0-2-------232---2-|
G:----0---------0-----0---------0-|----0---------------0-------4---|
D:--0---------------0-------------|--2---------------2---2---------|
A:--------------------------------|0---------------0---------------|
E:3---------------3---------------|--------------------------------|

Bm4 Bm
v v v v
e:------0-------------------------|
B:------------0-0h20--------------|
G:4---4---------------------------|
D:--4-----------------------------|
A:2-------------------------------|
E:--------------------------------|

STROFA 1 (Acoustic guitar)
Bm Bm
v v v v v v v v
e:0---------------2-----------2---|0---------------2-------2--0----|
B:------0-----3p0-------3---------|------0-----3p0---------3--3--3-|
G:--------4---------------4-------|--------4---------------------4-|
D:--------------------------------|--------------------------------|
A:2---------------2---------------|2---------------2---------------|
E:--------------------------------|--------------------------------|
Triplet

G A7/4 A7
v v v v v v v v
e:--------------------------------|--------------------------------|
B:------3---------------3---------|------3---------------2---------|
G:----0-----0---0-----0-----0---0-|----0-----0---0-----0-----0---0-|
D:--0---------0-----0---------0---|--2---------2-----2---------2---|
A:--------------------------------|0---------------0---------------|
E:3---------------3---------------|--------------------------------|

Bm4 Bm
v v v v
e:------0-------------------------|
B:----------0---0-----------------|
G:----4-------4---4---------------|
D:--4-----------------------------|
A:2-------------------------------|
E:--------------------------------|

Bm Bm
v v v v v v v v
e:----------------2---------------|----------------2-------2--0----|
B:------3-------------------------|------3-----------------3--3--3-|
G:----4-----4---4-----4-----4---4-|----4-----4---4---------------4-|
D:--4---------4---------4-----4---|--4---------4-------------------|
A:2-------------------------------|2-------------------------------|
E:--------------------------------|--------------------------------|
Triplet Triplet

G A7/4 A7
v v v v v v v v
e:--------------------------------|--------------------------------|
B:------3---------------3---------|------3---------------2---------|
G:----0-----0---0-----0-----0---0-|----2-----2---2-----0-----0---0-|
D:--0---------0-----0---------0---|--2---------2-----2---------2---|
A:--------------------------------|0---------------0---------------|
E:3---------------3---------------|--------------------------------|

Bm4 Bm A4 A7
v v v v v v v v
e:------0---------------------0---|----------------------0---------|
B:----------0---0-------------3---|------3-------------------------|
G:----4-------4---4---------------|----2-----2---2-----0-----0---0-|
D:--4-----------------------------|--2---------2-----2---------2---|
A:2-------------------------------|0---------------0---------------|
E:--------------------------------|--------------------------------|

A9 A Bm4 Bm
v v v v v v v v
e:------0-------------------------|------0---------------2---------|
B:----------------------2---------|--------------------------------|
G:----2-----2---2-----2-----2---2-|----4-----4---4-----4-----4---4-|
D:--2---------2-----2---------2---|--4---------4-----4---------4---|
A:0---------------0---------------|2---------------2---------------|
E:--------------------------------|--------------------------------|

A4 A7 A9 A
v v v v v v v v
e:----------------------0---------|------0-------------------------|
B:------3-------------------------|----------------------2---------|
G:----2-----2---2-----0-----0---0-|----2-----2---2-----2-----2---2-|
D:--2---------2-----2---------2---|--2---------2-----2---------2---|
A:0---------------0---------------|0---------------0---------------|
E:--------------------------------|--------------------------------|

Bm Bm7/A G7+
v v v v v v v v
e:------2---------------2---------|--------------------------------|
B:--------------------------------|--------------------------------|
G:----4-----4---4-----2-----2---2-|--------------------------------|
D:--4---------4-----0---------0---|--------------------------------|
A:2---------------0---------------|--------------------------------|
E:--------------------------------|3-------------------------------|

A G/A A4 A
v v v v v v v v
e:------0---------------0---------|--------------------------------|
B:------------2-0-2---------------|------0---------3-------2-------|
G:----2---------------2-----2---2-|----0-----0---0---2---2---2---2-|
D:--2---------------2---------2---|--0---------0-------2-------2---|
A:0---------------0---------------|0---------------0-------0-------|
E:--------------------------------|--------------------------------|

First time:
Bm G/A G9 G7+
v v v v v v v v
|-------2---------------3---------|------5---------------2----------||
|-----------3---3-----------3---3-|----------3---3-----------0---0--||
|*----4-------4-------4-------4---|----4-------4-------0-------0---*||
|*--4---------------5-------------|--3-----------------------------*||
|-2---------------0---------------|------------------2--------------||
|---------------------------------|3---------------3----------------||

Second time:
| Sim Sim7/La | Sol7+ La | (4 v.)
| Sim Sim7/La | Sol |

A7/4 A7 G/A A G/A A
v v v v v v v v
e:------0---------------0---------|--------------------------------|
B:3-----------2-0-2---------------|0-------2-------3---------------|
G:--0-----------------0-----0---0-|--0---0---2---2---0---0---------|
D:----2-------------2---------2---|----0-------2-------0-----------|
A:0---------------0---------------|0-------0-------0---------------|
E:--------------------------------|--------------------------------|

GUITAR SOLO
Bm Bm7 G7+ A
E||------------------------------|--------------------------------|
B||------------------------------|--------------------------------|
G||------------------------------|--------------------------------|
D||------------------------------|---------------------------7-9--|
A||--2/4--4-4/5--5-5/7--7-7/9--9-|--10-----9h10h12-10-9----9------|
E||------------------------------|--------------------------------|

Bm Bm7 G7+ A
---------------------------|------------------------------------------|
---------------------------|------------------------------------------|
-----------7-9b----9b--7h9p|--7---7h9p7---7h9p7-7h9p7-7h9p7-7h9p7-7h9p|
--9------9-----------------|------------------------------------------|
---------------------------|------------------------------------------|
---------------------------|------------------------------------------|

Bm Bm7 G7+ A
----------------------------|-------------------|
----------------------------|-------------------|
--7-6h7p6\4-----------------|-------------------|
--------------------9-7---7-|--9b---------------|
------------------------9---|-------------------|
----------------------------|-------------------|

Bm Bm7 G7+ A
--------------------------------|------------------14-----14-----|
--10b---12b---13b---12b-10b-12b-|--10b---12b---13b----13b-----13b|
--------------------------------|--------------------------------|
--------------------------------|--------------------------------|
--------------------------------|--------------------------------|
--------------------------------|--------------------------------|

Bm Bm7 G7+ A
-----------------------------------------|------------------------|
--13b----14h15p14-12-10------10-12-10-12-|--12b------12-12--------|
--------------------------11-------------|------------------------|
-----------------------------------------|------------------------|
-----------------------------------------|------------------------|
-----------------------------------------|------------------------|

Bm Bm7
-------------------------------------7h9h10p9p7h9h10p9p7h9h10p9p|
----------------------------------------------------------------|
------------------------9------9-11-----------------------------|
---------9-11------9-11---9-11----------------------------------|
----9-12------9-12----------------------------------------------|
----------------------------------------------------------------|

G7+ A
--7h9h10p9p7h9h10p9p7h9h10p9p7h9h10-12b-12b-12b-12b-|
----------------------------------------------------|
----------------------------------------------------|
----------------------------------------------------|
----------------------------------------------------|
----------------------------------------------------|

Bm Bm7
-12b--12b12b12b12b12b12b12-12-12-12-12-12-12-12-12-12-12-12-12-12-12-12-12--|
----------------------------------------------------------------------------|
----------------------------------------------------------------------------|
----------------------------------------------------------------------------|
----------------------------------------------------------------------------|
----------------------------------------------------------------------------|

G
--10h12p10\7---------------||
---------------------------||
---------------------------||
---------------------------||
---------------------------||
---------------------------||
Tap to rate this tab
# A B C D E F G H I J K L M N O P Q R S T U V W X Y Z