Song name
# A B C D E F G H I J K L M N O P Q R S T U V W X Y Z

Misc Unsigned Bands - Omar Pedrini - Sangue Impazzito tab

Sangue impazzito solo

drop down in A

|------------------------------|-----------------------------|
|------------------------------|-----------------------------|
|------------------------------|-----------------------------|
|------------------------------|------3-2-3-2----------------|
|--0/2--2-2/3--3-3/5--5-5/7--7-|--8--------------------------|
|------------------------------|-----------------------------|

|------------------------------|---------------------|-----------|
|------------------------------|---------------------|-----------|
|------------------------------|---------------------|-----------|
|------------------------------|--------3h3p2-5-3-2--|---5-7-7^^-|
|--0/2--2-2/3--3-3/5--5-5/7--7-|--8------------------|-s7--------|
|------------------------------|---------------------|-----------|

|-----------------------------------------------------------------------|
|-----------------------------------------------------------------------|
|--------7h9^^^--7h9-5h7p5--5--5h7p55--5h7p5-5h7p5-5h7p5-5h7p5-5h7p57-|
|---7--9----------------------------------------------------------------|
|-----------------------------------------------------------------------|
|-----------------------------------------------------------------------|

|----------------------------|-------------------|
|----------------------------|-------------------|
|--5\4-4h5p4\2-2h4p2\0-0h2p0-|-2b----------------|
|----------------------------|-------------------|
|----------------------------|-------------------|
|----------------------------|-------------------|

|------------------------------|--------------------------|
|--10---12---13b--12--10b-12b--|-10--12--13b----15-----15-|
|--12b-14b-15b--14b12b14b--|-12b-14b-15b15b---15b----|
|------------------------------|--------------------------|
|------------------------------|--------------------------|
|------------------------------|--------------------------|

|--------------------------------------------------|
|--------12h13p12----------------------------------|
|-15b-------------14-12-12----12---12----14br14-14-|
|---------------------------14---14----------------|
|--------------------------------------------------|
|--------------------------------------------------|

|--------------------------------------------------|
|--------------------------------8h10h12^^^^^------|
|----9h10h12--9h10h12--9h10h12---------------------|
|--------------------------------------------------|
|--------------------------------------------------|
|--------------------------------------------------|

----------------------------------------------------|
-13p12p10-13p12p10-13p12p10-13p12p10----1315b-15b--|
-------------------------------------14-------------|
----------------------------------------------------|
----------------------------------------------------|
----------------------------------------------------|

------15-----------------------------------------------------------------|
--15b---15b--15-15-15-15-15-15-15-15-15-15-15-15-15-15-15-15-13h15p13----|
----------------------------------------------------------------------14-|
-------------------------------------------------------------------------|
-------------------------------------------------------------------------|
-------------------------------------------------------------------------|
Tap to rate this tab
# A B C D E F G H I J K L M N O P Q R S T U V W X Y Z