Song name
# A B C D E F G H I J K L M N O P Q R S T U V W X Y Z

Misc Unsigned Bands - Omar Pedrini - Ora E Per Sempre tab

ORA E PER SEMPRE (da "1999" - Timoria)

[Intro] D E7 G D

e|-------------------------|--------------------------|
B|---------10--------------|----------12--------------|
G|--9--11------------------|--11--13------------------|
D|-------------12----------|--------------14----------|
A|-------------------------|--------------------------|
E|-------------------------|--------------------------|

--------------------------|
----------12--------------|
--12--14------------------|
--------------12----------|
--------------------------|
--------------------------|


D E7 G D
Se sono sveglio - io non lo so
se invece dormo mi svegliero'
D E G D
E non mi arrendo_____ al freddo che
c'e' in ogni giorno senza di te.

D Bm C G
Now and forever ci credero'
Now and forever ritornero'
Ora e per sempre - io ci saro'

e|----------------|----------------------------------|
B|----------------|----------------------------------|
G|--9--7----------|--9--7----------------------------|
D|--------9-9--7--|--------9-9--7-7-7--5-5-5--4-4-4--|
A|----------------|----------------------------------|
E|----------------|----------------------------------|

Passano i giorni cambian le
idee - cuore dormiente morto
non sei - Cresce il frumento
sorridi che cambiano i venti io
ci credero'

Now and forever ci credero'
Now and forever ritornero'
Ora e per sempre io ci saro'

D Bm
E c'e' questa vita che
D
Ti sbatte in faccia e
Bb
Si spoglia insieme a te
D Bm
E come una donna che
Bb
ti sfiora piano e respirera' con te

E C#m D A
Ora e per sempre - io ci saro'
Now and forever - ci credero'
Now and forever - ritornero'
Ora e per sempre - io ci saro'
Tap to rate this tab
 
# A B C D E F G H I J K L M N O P Q R S T U V W X Y Z