Song name
# A B C D E F G H I J K L M N O P Q R S T U V W X Y Z

Misc Unsigned Bands - Reanimated - Bulemia tab

Reanimated - Bulemia

www.myspace.com/reanimatedhu
www.facebook.com/reanimatedhu

Reanimated is a hungarian death-thrash band. They 
formed in Budapest in 2010.
This song is the second track on their first demo. 
The demo called 
Demolition 1102 ( 1102 is mirrorimage of 2011). 

If you have any questions, you can write on the 
following e-mail adress:

ratnorobag@freemail.hu



Intro clean

     E  E  E  E  E  E  E   E   E  E   E   E   
D||------------------------------------------|
A||---------------------------10-------------|
F||--------9--------9-----10-------------10--|
C||-----9--------9-----8-------------10------|
G||--7--------8-------------------8----------|
D||------------------------------------------|


  E  E  E  E  E  E  E  E  E  E  E  E   
--------------------------------------|
--------------------------------------|
--------9--------9-----------------8--|
-----9--------9-----------8-----8-----|
--7--------8-----------8-----6--------|
--------------------6-----------------|


  E  E  E  E  E  E  E   E   E  E   E   E   
------------------------------------------|
---------------------------10-------------|
--------9--------9-----10-------------10--|
-----9--------9-----8-------------10------|
--7--------8-------------------8----------|
------------------------------------------|


  E  E  E  E  E  E  E  E  E  E  E  E   
--------------------------------------|
--------------------------------------|
--------9--------9-----------------8--|
-----9--------9-----------8-----8-----|
--7--------8-----------8-----6--------|
--------------------6-----------------|



intro power chords

           PM   PM   PM                     
           |----3----|                      
  H        Q    Q    Q    W                 
-------------------------------------------|
-------------------------------------------|
-------------------------------------------|
--3--------3----3----3----9----------------|
--1--------1----1----1----7----------------|
--1--------1----1----1----7----------------|


           PM   PM   PM                     
           |----3----|                      
  H        Q    Q    Q    W                 
-------------------------------------------|
-------------------------------------------|
-------------------------------------------|
--3--------3----3----3----9----------------|
--1--------1----1----1----7----------------|
--1--------1----1----1----7----------------|


           PM   PM   PM                     
           |----3----|                      
  H        Q    Q    Q    W                 
-------------------------------------------|
-------------------------------------------|
-------------------------------------------|
--3--------3----3----3----9----------------|
--1--------1----1----1----7----------------|
--1--------1----1----1----7----------------|


           PM   PM   PM                                 
           |----3----|    |----3----|    |----3----|    
  H        Q    Q    Q    Q    Q    Q    Q    Q    Q    
--------------------------------------------------------
--------------------------------------------------------
--------------------------------------------------------
--3--------3----3----3----9----9----9----9----9----9----
--1--------1----1----1----7----7----7----7----7----7----
--1--------1----1----1----7----7----7----7----7----7----






                   

                                      
  W                               
-------------------|             
-------------------|             
-------------------|                
--3----------------|    
--1----------------|
--1----------------|



Bulemia!!! x8


      PM     PM     PM     PM  
  S S E  S S E  S S E  S S E   
------------------------------|
------------------------------|
------------------------------|
------------------------------|
--2-2-2--2-2-2--2-2-2--2-2-2--|
--0-0-0--0-0-0--0-0-0--0-0-0--|


      PM     PM             
  S S E  S S E  E.  E.  E   
---------------------------|
---------------------------|
---------------------------|
----------------7----------|
--2-2-2--2-2-2--5---5---3--|
--0-0-0--0-0-0------3---1--|


                          
      
end of riff

--------|
--2-----|
--2-----|
--0-----|



Verse x 4

  S S S S S S S S S S S S    S S S S S S S S S S S S  
--------------------------|--------------------------|
--------------------------|--------------------------|
--------------------------|--------------------------|
----------1-----------2-3-|----------1-----------2-3-|
------2-----2-----3-------|------2-----2-----3-------|
--0-0---0-----0-0---0-----|--0-0---0-----0-0---0-----|


  S S S S S S S S S S E  S S S S E  E   
---------------------------------------|
---------------------------------------|
---------------------------------------|
----------3-------5-4-3----------------|
--4---------4------------4-------3-----|
----2-2-2-----3-2----------2-2-2----3--|


  S S S S S S S S S S E  S S S S E  E   
---------------------------------------|
---------------------------------------|
---------------------------------------|
----------3-------5-4-3----------------|
--4---------4------------4-------3-----|
----2-2-2-----3-2----------2-2-2----3--|



solo 1 x 4

  Q    E  E  Q    Q        Q    E  E   Q     Q     
-----------------------|--------------------------|
-----------------------|--------------------------|
-----------------------|--------------------------|
--9----------9----9----|--10----------10----10----|
--7----------7----7----|---8-----------8-----8----|
-------0--0------------|--------0--0--------------|


  Q    E  E  Q    Q       E  E  E  E  E  E  E  E   
-----------------------|--------------------------|
-----------------------|--------------------------|
-----------------------|--------------------------|
--9----------9----9----|--------------------------|
--7----------7----7----|--8--8--8--8--8--8--8--8--|
-------0--0------------|--6--6--6--6--6--6--6--6--|



solo 2 x 4

  PM PM    PM    PM          PM PM    PM    PM        
  E  E  E  E  E  E  E  E     E  E  E  E  E  E  E  E   
--------------------------|--------------------------|
--------------------------|--------------------------|
--------------------------|--------------------------|
--------------------------|--------------------------|
--------2-----2-----2--0--|--------3-----3-----3--0--|
--0--0-----0-----0--------|--0--0-----0-----0--------|


  PM PM    PM    PM                             
  E  E  E  E  E  E  E  E     H        H         
--------------------------|--------------------|
--------------------------|--------------------|
--------------------------|--9-----------------|
--------------------------|--9--------8--------|
--------2-----2-----2--0--|--7--------8--------|
--0--0-----0-----0--------|-----------6--------|


verse x 4

Bulemia!x7

Last beats


      PM     PM     PM     PM  
  S S E  S S E  S S E  S S E   
------------------------------|
------------------------------|
------------------------------|
------------------------------|
--2-2-2--2-2-2--2-2-2--2-2-2--|
--0-0-0--0-0-0--0-0-0--0-0-0--|


      PM     PM             
          
  S S E  S S E  E.  E.  E     E  E    
---------------------------|--------||
---------------------------|--------||
---------------------------|--------||
----------------7----------|--------||
--2-2-2--2-2-2--5---5---3--|--2-----||
--0-0-0--0-0-0------3---1--|--0-----||




Duration Legend
---------------
W - whole
H - half
Q - quarter
E - 8th
S - 16th
T - 32nd
X - 64th
. - note dotted
|-n-|  - n-tuplets


Tablature Legend
----------------
L - tied note
x - dead note
g - grace note
(n) - ghost note
> - accentuded note
NH - natural harmonic
AH - artificial harmonic
TH - tapped harmonic
SH - semi harmonic
PH - pitch harmonic
h - hammer on
p - pull off
b - bend
br - bendRelease
pb - preBend
pbr - preBendRelease
brb - bendReleaseBend
\n/ - tremolo bar dip
\n - tremolo bar dive
-/n - tremolo bar Release up
/n\ - tremolo bar inverted dip
/n - tremolo bar return
-\n - tremolo bar Release down
S - shift slide
s - legato slide
/ -  slide into from below or out of upwards
\ -  slide into from above or out of downwards
~ - vibrato
W - wide vibrato
tr - trill
TP - tremolo picking
T - tapping
S - slap
P - pop
< - fade in
^ - brush up
v - brush down
Tap to rate this tab
# A B C D E F G H I J K L M N O P Q R S T U V W X Y Z