Song name
# A B C D E F G H I J K L M N O P Q R S T U V W X Y Z

Misc Unsigned Bands - Reanimated - Borders Of Sanity tab

Reanimated - Borders of Sanity
www.myspace.com/reanimatedhu
www.facebook.com/reanimatedhu

Reanimated is a hungarian death-thrash band. They
formed in Budapest in 2010.
This song is the third track on their first demo.
The demo called
Demolition 1102 ( 1102 is mirrorimage of 2011).

If you have any questions, you can write on the
following e-mail adress:

ratnorobag@freemail.hu




intro

repeat 2

     E  E  S S E  E  E  E  E
D||---------------------------|
A||---------------------------|
F||-----4----4-5-----4--------|     X4
C||-----2----2-3-----2--4--3--|
G||--2-----2------2-----2--1--|
D||--0-----0------0-----------|


then

  E  E  S S S S E   E  E  E
-----------------------------|
-----------------------------|
-----------------------------|     x2
-----9--------------4--3-----|
--2--7----7-6-------2--1--4--|
--0-----8-----7-5~--------2--|


Bridge a  x 4

  S S E  S S E  S S E  S S E
------------------------------|
------------------------------|
-----------4------------------|
----4-5------5----4-5----2----|
---------------------------5--|
--2------2------2------2------|


Main x2

  S  S  S S S  S S S S S S  S S S S S S S S S  S  S  E
--------------------------------------------------------|
--------------------------------------------------------|
----------------------------------------------------15--|
----11-12---8-11---7-8---8-11---7-8---5-7-7-7----15-----|
--0-------0------0-----0------0-----0---------13--------|
--------------------------------------------------------|


  S  S  S S S  S S S S S S  S S S S S S S S S S S E  Q
--------------------------------------------------------|
--------------------------------------------------------|
--------------------------------------------------3--2--|
----11-12---8-11---7-8---8-11---7-8---5-7-7-7---3-------|
--0-------0------0-----0------0-----0---------1---------|
--------------------------------------------------------|


refrain x4

  S S S S S S S S S S S S S S E
---------------------------------|
---------------------------------|
--------------4------------------|
------4-5-------5-----4-5-2-4----|
------------------------------5--|
--2-2-----2-2-----2-2------------|


  S S S S S S S S S S S S S S E
----------------------------------|
----------------------------------|
--------------4-------------------|
------4-5-------5-----4-5-2-4-2~--|
----------------------------------|
--2-2-----2-2-----2-2-------------|



bridge b x3

  S S S S S S S S S S S S S S S S
----------------------------------|
----------------------------------|
----------------------------------|
--4---4---4---4---2---2---2---2---|
----------------------------------|
----2---2---2---2---0---0---0---0-|


  S S S S S S S S S S S S S S S S
----------------------------------|
----------------------------------|
----------------------------------|
--5---5---5---5---8---8---8---8---|
----------------------------------|
----3---3---3---3---6---6---6---6-|


bridge b/2 x4


  S S S S S S S S S S S S S S E
----------------------------------|
----------------------------------|
----------------------------------|
--4---4---5---4---7---8---7---5~--|
----------------------------------|
----2---2---2---2---5---5---5-----|




Bridge a x4

main theme x2

refrain x4

bridge b x3

bridge b/2 x4

then outro

(Outro is equer intro, without repeat)




Duration Legend
---------------
W - whole
H - half
Q - quarter
E - 8th
S - 16th
T - 32nd
X - 64th
. - note dotted
|-n-|  - n-tuplets
Tap to rate this tab
 
# A B C D E F G H I J K L M N O P Q R S T U V W X Y Z