Song name
# A B C D E F G H I J K L M N O P Q R S T U V W X Y Z

Misc Unsigned Bands - Reanimated - Hate Fear And Blood tab

d - Hate, fear and blood

www.myspace.com/reanimatedhu
www.facebook.com/reanimatedhu

Reanimated is a hungarian death-thrash band. They 
formed in Budapest in 2010.
This song is the first track on their first demo. 
The demo called 
Demolition 1102 ( 1102 is mirrorimage of 2011). 

If you have any questions, you can write on the 
following e-mail adress:

ratnorobag@freemail.hu


intro

     E  E  E  E  E  E  E  E   
D||--------------------------|
A||--------------------------|
F||--------------------------|
C||--------------5--5--5--5--|
G||--------------------------|
D||--3--3--3--3--------------|


  E  E  E  E  E  E  E  E     E  E  E  E  E  E  E  E   
--------------------------|--------------------------|
--------------------------|--------------------------|
--------------------------|--------------------------|
--6--6--6--6--------------|--------------5--5--5--5--|
--------------------------|--------------------------|
--------------4--4--4--4--|--3--3--3--3--------------|


  E  E  E  E  E  E  E  E     E  E  E  E  E  E  E  E   
--------------------------|--------------------------|
--------------------------|--------------------------|
--------------------------|--------------------------|
--6--6--6--6--8--8--8--8--|--------------5--5--5--5--|
--------------------------|--------------------------|
--------------------------|--3--3--3--3--------------|


  E  E  E  E  E  E  E  E     E  E  E  E  E  E  E  E   
--------------------------|--------------------------|
--------------------------|--------------------------|
--------------------------|--------------------------|
--6--6--6--6--------------|--------------------------|
--------------------------|--------------5--5--5--5--|
--------------4--4--4--4--|--3--3--3--3--------------|


  Q.     Q.     Q       E  E  E  E  E  E  E  E   
---------------------|--------------------------|
---------------------|--------------------------|
---------------------|--------------7--7--7--7--|
---------------------|--------------------------|
--6------5------3----|--5--5--5--5--------------|
--4------3------1----|--------------------------|


  E  E  E  E  E  E  E  E     E  E  E  E  E  E  E  E   
--------------------------|--------------------------|
--------------------------|--------------------------|
--8--8--8--8--------------|--------------7--7--7--7--|
--------------------------|--------------------------|
--------------6--6--6--6--|--5--5--5--5--------------|
--------------------------|--------------------------|


  E  E  E  E   E   E   E   E   
------------------------------|
------------------------------|
--8--8--8--8--10--10--10--10--|
------------------------------|
------------------------------|
------------------------------|


  E  E  E  E  E  E  E  E     E  E  E  E  E  E  E  E   
--------------------------|--------------------------|
--------------------------|--------------------------|
--------------7--7--7--7--|--8--8--8--8--------------|
--------------------------|--------------------------|
--5--5--5--5--------------|--------------6--6--6--6--|
--------------------------|--------------------------|


  E  E  E  E  E  E  E  E     Q    Q    Q.     E   
--------------------------|----------------------|
--------------------------|----------------------|
--------------------------|----------------------|
--------------7--7--7--7--|----------------------|
--5--5--5--5--------------|--6----5----3---------|
--------------------------|--4----3----1---------|


  

riff


  S S S S S S S S S S S S S S S S  
----------------------------------|
----------------------------------|
----------------------------------|
----------5-5-5-5-6-6-6-6---------|
----------------------------------|
--3-3-3-3-----------------4-4-4-4-|


  S S S S S S S S S S S S S S S S  
----------------------------------|
----------------------------------|
----------------------------------|
----------5-5-5-5-6-6-6-6-8-8-8-8-|
----------------------------------|
--3-3-3-3-------------------------|


  S S S S S S S S S S S S S S S S  
----------------------------------|
----------------------------------|
----------------------------------|
----------5-5-5-5-6-6-6-6---------|
----------------------------------|
--3-3-3-3-----------------4-4-4-4-|


  S S S S S S S S E  E  Q     
-----------------------------|
-----------------------------|
-----------------------------|
-----------------------------|
----------5-5-5-5-6--5--3----|
--3-3-3-3---------4--3--1----|


riff higher

  S S S S S S S S S S S S S S S S  
----------------------------------|
----------------------------------|
----------------------------------|
----------5-5-5-5-6-6-6-6---------|
----------------------------------|
--3-3-3-3-----------------4-4-4-4-|


  S S S S S S S S S S S S S S S S  
----------------------------------|
----------------------------------|
----------------------------------|
----------5-5-5-5-6-6-6-6-8-8-8-8-|
----------------------------------|
--3-3-3-3-------------------------|


  S S S S S S S S S S S S S S S S  
----------------------------------|
----------------------------------|
----------------------------------|
----------5-5-5-5-6-6-6-6---------|
----------------------------------|
--3-3-3-3-----------------4-4-4-4-|


  S S S S S S S S E  E  Q     
-----------------------------|
-----------------------------|
-----------------------------|
-----------------------------|
----------5-5-5-5-6--5--3----|
--3-3-3-3---------4--3--1----|




bridge
  E  E  H.            
---------------------|
---------------------|
---------------------|
--5--5---------------|
--5--5---------------|
--3--3---------------|


  E  E  H.              E  E  H.            
---------------------|---------------------|
---------------------|---------------------|
---------------------|---------------------|
--5--5---------------|--5--5---------------|
--5--5---------------|--5--5---------------|
--3--3---------------|--3--3---------------|


   H        H           E  E  H.            
---------------------|---------------------|
---------------------|---------------------|
---------------------|---------------------|
--/6--------3--------|--5--5---------------|
--/6--------3--------|--5--5---------------|
--/4--------1--------|--3--3---------------|


  E  E  H.              E  E  H.            
---------------------|---------------------|
---------------------|---------------------|
---------------------|---------------------|
--5--5---------------|--5--5---------------|
--5--5---------------|--5--5---------------|
--3--3---------------|--3--3---------------|


   H        H         
---------------------|
---------------------|
---------------------|
--/6--------3--------|
--/6--------3--------|
--/4--------1--------|


bridge 2


  Q    Q    Q    Q     
----------------------|
----------------------|
----------------------|
----------------------|
--5----5----6----5----|
--3----3----4----3----|


  E  E  E  E  E  E  Q       Q    Q    Q    Q     
-------------------------|----------------------|
-------------------------|----------------------|
-------------------------|----------------------|
-------------------------|----------------------|
-------------------------|--5----5----6----5----|
--4--3--1--1--1--3--4----|--3----3----4----3----|


  E  E  E  E  E  E  Q       Q    Q    Q    Q     
-------------------------|----------------------|
-------------------------|----------------------|
-------------------------|----------------------|
-------------------------|----------------------|
-------------------------|--5----5----6----5----|
--4--3--1--1--1--3--4----|--3----3----4----3----|


  E  E  E  E  E  E  Q       Q    Q    Q    Q     
-------------------------|----------------------|
-------------------------|----------------------|
-------------------------|----------------------|
-------------------------|----------------------|
-------------------------|--5----5----6----5----|
--4--3--1--1--1--3--4----|--3----3----4----3----|


  E  E  E  E  E  Q.                         
------------------------|-------------------|
------------------------|-------------------|
------------------------|-------------------|
-----------------6------|-------------------|
-----------------6------|-------------------|
--4--3--1--1--3--4------|-------------------|





riff 2




  S S S S S S  S S S S S S    S S S S S S E   E   
---------------------------|---------------------|
---------------------------|---------------------|
---------------------------|---------------------|
---------------------------|---------------------|
--7------------------------|--7-----------8--10--|
--5-5-5-5-5-5-10-8-6-8-6-8-|--5-5-5-5-5-5-6---8--|


  S S S S S S  S S S S S S    S S S S S S E   E   
---------------------------|---------------------|
---------------------------|---------------------|
---------------------------|---------------------|
---------------------------|---------------------|
--7------------------------|--7-----------8--10--|
--5-5-5-5-5-5-10-8-6-8-6-8-|--5-5-5-5-5-5-6---8--|


riff 2 higher

  S S S S S S  S S S S S S    S S S S S S E   E   
---------------------------|---------------------|
---------------------------|---------------------|
---------------------------|---------------------|
--7------------------------|--7-----------8--10--|
--5-5-5-5-5-5-10-8-6-8-6-8-|--5-5-5-5-5-5-6---8--|
---------------------------|---------------------|


  S S S S S S  S S S S S S    S S S S S S E   E   
---------------------------|---------------------|
---------------------------|---------------------|
---------------------------|---------------------|
--7------------------------|--7-----------8--10--|
--5-5-5-5-5-5-10-8-6-8-6-8-|--5-5-5-5-5-5-6---8--|
---------------------------|---------------------|



last riff

    Q     E  E  Q    E  E      E  E   E  E  Q    Q     
|--------------------------|--------------------------|
|--------------------------|--------------------------|
|*-------------------------|--------------------------|
|*-------------------------|---L----------------------|
|---7--------8--7-------7--|------7------8--7----7----|
|---0----10-----0-------0--|------0--10-----0----0----|


  Q    E  E  Q    Q     6x  Q    E  E  Q    Q     
------------------------||-----------------------|
------------------------||-----------------------|
-----------------------*||-----------------------|
-------8---------------*||-------8---------------|
--8----6--8--5----8-----||--8----6--8--5----8----|
--6-------6--3----6-----||--6-------6--3----6----|


  Q    E  E  Q    Q       Q    E  E  Q    Q     
-----------------------|-----------------------|
-----------------------|-----------------------|
-----------------------|-----------------------|
-------8---------------|-------8---------------|
--8----6--8--5----8----|--8----6--8--5----8----|
--6-------6--3----6----|--6-------6--3----6----|


  W                  
-------------------||
-------------------||
-------------------||
--2----------------||
--2----------------||
--0----------------||




Duration Legend
---------------
W - whole
H - half
Q - quarter
E - 8th
S - 16th
T - 32nd
X - 64th
. - note dotted
|-n-|  - n-tuplets

Tap to rate this tab
 
# A B C D E F G H I J K L M N O P Q R S T U V W X Y Z