Song name
# A B C D E F G H I J K L M N O P Q R S T U V W X Y Z

Misc Unsigned Bands - Secondhand Habit - Badass tab

-------------------------------------------------------------------------------
			  Badass - Secondhand Habit
-------------------------------------------------------------------------------
Tabbed by: Jay3000

Tuning: Standard

Intro/Verse
e|---------------------------------------------------------------------------|
B|---------------------------------------------------------------------------|
G|---------------------------------------------------------------------------|
D|-2--2--7--7--11--11--9--9--------------------------------------------------|
A|-2--2--7--7--11--11--9--9--------------------------------------------------|
E|-0--0--5--5--9---9---7--7--------------------------------------------------|

Verse/Chorus Lead In
e|---------------------------------------------------------------------------|
B|---------------------------------------------------------------------------|
G|---------------------------------------------------------------------------|
D|-2--2--7--7--11--11--11--9--9----------------------------------------------|
A|-2--2--7--7--11--11--11--9--9----------------------------------------------|
E|-0--0--5--5--9---9---9---7--7----------------------------------------------|

Chorus (x3)
e|---------------------------------------------------------------------------|
B|---------------------------------------------------------------------------|
G|---------------------------------------------------------------------------|
D|\4-4-4/9-9-9-9-9-9-X-X-2-2-X-X-7-----6-----4-------------------------------|
A|\4-4-4/9-9-9-9-9-9-X-X-2-2-X-X-7-----6-----4-------------------------------|
E|\2-2-2/7-7-7-7-7-7-X-X-0-0-X-X-5-0-0-4-0-0-2-------------------------------|

Chorus/Verse Lead In
e|---------------------------------------------------------------------------|
B|---------------------------------------------------------------------------|
G|---------------------------------------------------------------------------|
D|\4-4-4/9-9-9-9-9-9-X-X-2-2-X-X-7-----6-------------------------------------|
A|\4-4-4/9-9-9-9-9-9-X-X-2-2-X-X-7-----6-------------------------------------|
E|\2-2-2/7-7-7-7-7-7-X-X-0-0-X-X-5-0-0-4-0-0---------------------------------|

Solo
e|h12p7h9h12p7h9h12p7h9h14p7h9h12p7h9h12p7h9h12p7h9h16p7h9h12p7h9h12p7h9h17--|
B|---------------------------------------------------------------------------|
G|---------------------------------------------------------------------------|
D|---------------------------------------------------------------------------|
A|---------------------------------------------------------------------------|
E|---------------------------------------------------------------------------|

e|p7h9h16p7h9h14p7h9h16p7h9h14p7h9h12p7h9h12p7h9h12p7h9h14p7h9h12p7h9h12-----|
B|---------------------------------------------------------------------------|
G|---------------------------------------------------------------------------|
D|---------------------------------------------------------------------------|
A|---------------------------------------------------------------------------|
E|---------------------------------------------------------------------------|

e|p7h9h12p7h9h16p7h9h12p7h9h12p7h9h17p7h9h16p7h9h14p7h9h16p7h9h14p7h9h12-----|
B|---------------------------------------------------------------------------|
G|---------------------------------------------------------------------------|
D|---------------------------------------------------------------------------|
A|---------------------------------------------------------------------------|
E|---------------------------------------------------------------------------|

e|p7h9h12-9-12-9-----------------------------9-12--------9-/14--------9-/16-14-17-16|
B|---------------12-12-12-9----9-12-9-9-9-12------9-9-12-------9-9-12---------------|
G|--------------------------11------------------------------------------------------|
D|----------------------------------------------------------------------------------|
A|----------------------------------------------------------------------------------|
E|----------------------------------------------------------------------------------|

e|12-0-0-9-0-0-7-0-0-9-0-0-12-12-12-0-0-9-0-0-7-0-0-9-0-0-14-14-12-0-0-9-0-0-|
B|---------------------------------------------------------------------------|
G|---------------------------------------------------------------------------|
D|---------------------------------------------------------------------------|
A|---------------------------------------------------------------------------|
E|---------------------------------------------------------------------------|

e|7-0-0-9-0-0-12-12-12p9-9p7-7p5-5p4-0-12-0-0-9-0-0-7-0-0-9-0-0-12-12-12-0-0-|
B|---------------------------------------------------------------------------|
G|---------------------------------------------------------------------------|
D|---------------------------------------------------------------------------|
A|---------------------------------------------------------------------------|
E|---------------------------------------------------------------------------|

e|9-0-0-7-0-0-9-0-0-14-14-12-0-0-9-0-0-7-0-0-9-0-0-12-12-12p9-------------------------|
B|------------------------------------------------------------12p9--------------------|
G|-----------------------------------------------------------------11p9--------9h11p9~|
D|----------------------------------------------------------------------11p9h11-------|
A|------------------------------------------------------------------------------------|
E|------------------------------------------------------------------------------------|
Tap to rate this tab
 
# A B C D E F G H I J K L M N O P Q R S T U V W X Y Z