Song name
# A B C D E F G H I J K L M N O P Q R S T U V W X Y Z

Misc Unsigned Bands - Ruins Of Tomorrow - The Hounds Of Zaroff tab

Note: THIS IS MY FIRST TAB! So preez, don't hateC: The tuning is Drop A (ik the strings 
on the tab don't show it, but it is). My spacing is probably off, but I'm sure you'll 
get the gist of it. Enjoy (:

Intro.
e--------------------------------|
B--------------------------------|
G--------------------------------|
D--------------------------------|
A-3-0-3*-2-0---------------------|
E-3-0----2-0-3*------------------|

e--------------------------------|
B--------------------------------|
G--------------------------------|
D--------------------------------|
A-3-0-0-2-0-0-2-0-0--------------|
E-3-0-0-2-0-0-2-0-0--------------|

e--------------------------------|
B--------------------------------|
G--------------------------------|
D--------------------------------|
A-3-0-0-2-0-0-2-0-0--------------|
E-3-0-0-2-0-0-2-0-0--------------|
Harmonized
e--------------------------------|
B--------------------------------|
G--------------------------------|
D--------------------------------|
A-----7-----6--------------------|
E-0-0---0-0----------------------|

e--------------------------------|
B--------------------------------|
G--------------------------------|
D--------------------------------|
A-3-0-0-2-0-0-2-0-0-3-0-0--------|
E-3-0-0-2-0-0-2-0-0-3-0-0--------|

e--------------------------------|
B--------------------------------|
G--------------------------------|
D--------------------------------|
A-----8t5t----6t3t---------------|
E-5t8t----3t6t-------------------|

e--------------------------------|
B--------------------------------|
G--------------------------------|
D--------------------------------|
A-3-0-0-2-0-0-2-0-0--------------|
E-3-0-0-2-0-0-2-0-0--------------|

e--------------------------------|
B--------------------------------|
G--------------------------------|
D--------------------------------|
A-3-0-0-2-0-0-2-0-0--------------|
E-3-0-0-2-0-0-2-0-0--------------|
Harmonized
e--------------------------------|
B--------------------------------|
G--------------------------------|
D--------------------------------|
A-----7-----6--------------------|
E-0-0---0-0----------------------|

e--------------------------------|
B--------------------------------|
G--------------------------------|
D--------------------------------|
A-3-0-0-2-0-0-2-0-0-3-0-0--------|
E-3-0-0-2-0-0-2-0-0-3-0-0--------|

e--------------------------------|
B--------------------------------|
G--------------------------------|
D--------------------------------|
A-1-1-1-1-1-1-1-1-1--------------|
E-1-1-1-1-1-1-1-1-1--------------|

e--------------------------------|
B--------------------------------|
G--------------------------------|
D--------------------------------|
A-3-0-0-2-0-0-2-0-0--------------|
E-3-0-0-2-0-0-2-0-0--------------|

e--------------------------------|
B--------------------------------|
G--------------------------------|
D--------------------------------|
A-3-0-0-2-0-0-2-0-0--------------|
E-3-0-0-2-0-0-2-0-0--------------|
Harmonized
e--------------------------------|
B--------------------------------|
G--------------------------------|
D--------------------------------|
A-----7-----6--------------------|
E-0-0---0-0----------------------|

e--------------------------------|
B--------------------------------|
G--------------------------------|
D--------------------------------|
A-3-0-0-2-0-0-2-0-0-3-0-0--------|
E-3-0-0-2-0-0-2-0-0-3-0-0--------|
Harmonized
e--------------------------------|
B--------------------------------|
G--------------------------------|
D-----8t5t----6t3t---------------|
A-4t7t----2t5t-------------------|
E--------------------------------|

e--------------------------------|
B--------------------------------|
G--------------------------------|
D--------------------------------|
A-3-0-0-2-0-0-2-0-0--------------|
E-3-0-0-2-0-0-2-0-0--------------|

e--------------------------------|
B--------------------------------|
G--------------------------------|
D--------------------------------|
A-3-0-0-2-0-0-2-0-0--------------|
E-3-0-0-2-0-0-2-0-0--------------|
Harmonized
e--------------------------------|
B--------------------------------|
G--------------------------------|
D--------------------------------|
A-----7-----6--------------------|
E-0-0---0-0----------------------|

e--------------------------------|
B--------------------------------|
G--------------------------------|
D--------------------------------|
A-3-0-0-2-0-0-2-0-0-3-0-0--------|
E-3-0-0-2-0-0-2-0-0-3-0-0--------|
Harmonized
e--------------------------------|
B--------------------------------|
G--------------------------------|
D-----8t5t----6t3t---------------|
A-4t7t----2t5t-------------------|
E--------------------------------|

e--------------------------------|
B--------------------------------|
G-15~--8~--12--------------------|
D--------------------------------|
A-13~--6~--10--------------------|
E--------------------------------|

e--------------------------------|
B--------------------------------|
G--------------------------------|
D--------------------------------|
A-----8---8s~5-------------------|
E-0-0---0------------------------|

e--------------------------------|
B--------------------------------|
G--------------------------------|
D--------------------------------|
A-----5---5h4-----4--------------|
E-0-0---0-----0-0----------------|

e--------------------------------|
B--------------------------------|
G--------------------------------|
D--------------------------------|
A-----8---8s~5----5t-8t-4t-5t----|
E-0-0---0------0-0---------------|

e--------------------------------|
B--------------------------------|
G--------------------------------|
D--------------------------------|
A-----8---8h5-----5---5h4-----4h5|
E-0-0---0-----0-0---0-----0-0----|

e--------------------------------------|
B--------------------------------------|
G--------------------------------------|
D--------------------------------------|
A-----8---10---8---------10----12----10|
E-8-8---8----8---8-10-10----10----10---|

e--------------------------------|
B--------------------------------|
G--------------------------------|
D--------------------------------|
A-----8---8s~5-------------------|
E-0-0---0------------------------|

e--------------------------------|
B--------------------------------|
G--------------------------------|
D--------------------------------|
A-----5---5h4-----4--------------|
E-0-0---0-----0-0----------------|

e--------------------------------|
B--------------------------------|
G--------------------------------|
D--------------------------------|
A-----8---8s~5----5t-8t-4t-5t----|
E-0-0---0------0-0---------------|

e--------------------------------|
B--------------------------------|
G--------------------------------|
D--------------------------------|
A-----8---8h5-----5---5h4-----4h5|
E-0-0---0-----0-0---0-----0-0----|

e--------------------------------|
B--------------------------------|
G-15~--8~--12--------------------|
D--------------------------------|
A-13~--6~--10--------------------|
E--------------------------------|
Harmonized
e--------------------------------|
B--------------------------------|
G--------------------------------|
D--------------------------------|
A-----8---8s~5-------------------|
E-0-0---0------------------------|

e--------------------------------|
B--------------------------------|
G--------------------------------|
D--------------------------------|
A-----5---5h4-----4--------------|
E-0-0---0-----0-0----------------|

e--------------------------------|
B--------------------------------|
G--------------------------------|
D--------------------------------|
A-----8---8s~5----5t-8t-4t-5t----|
E-0-0---0------0-0---------------|

e--------------------------------|
B--------------------------------|
G--------------------------------|
D--------------------------------|
A-----8---8h5-----5---5h4-----4h5|
E-0-0---0-----0-0---0-----0-0----|

e--------------------------------------|
B--------------------------------------|
G--------------------------------------|
D--------------------------------------|
A-----8---10---8---------10----12----10|
E-8-8---8----8---8-10-10----10----10---|

e--------------------------------|
B--------------------------------|
G--------------------------------|
D--------------------------------|
A-----8---8s~5-------------------|
E-0-0---0------------------------|

e--------------------------------|
B--------------------------------|
G--------------------------------|
D--------------------------------|
A-----5---5h4-----4--------------|
E-0-0---0-----0-0----------------|

e--------------------------------|
B--------------------------------|
G--------------------------------|
D--------------------------------|
A-----8---8s~5----5t-8t-4t-5t----|
E-0-0---0------0-0---------------|

e--------------------------------|
B--------------------------------|
G--------------------------------|
D--------------------------------|
A-----8---8h5-----5---5h4-----4h5|
E-0-0---0-----0-0---0-----0-0----|

e--------------------------------|
B--------------------------------|
G-15~--8~--12--------------------|
D--------------------------------|
A-13~--6~--10--------------------|
E--------------------------------|
The rhythm part of this transition is just a series of open notes on the E & A string, 
lead part below is pull-offs
e-----------------------------------------------------------------------------------|
B-----------------------------------------------------------------------------------|
G-----------------------------------------------------------------------------------|
D-5-7-8-7-8-10-8-10-12-10-12-14-15-14-15-17-15-17-19-17-19-20-19-20-22-20-22-20-22--|
A-----------------------------------------------------------------------------------|
E-----------------------------------------------------------------------------------|
Breakdown
e--------------------------------|
B--------------------------------|
G--------------------------------|
D--------------------------------|
A-0-0-0-0-0-0-0-0-0--0--0--------|
E-0-0-0-0-0-0-0-0-0--0--0--------|

e--------------------------------|
B--------------------------------|
G--------------------------------|
D--------------------------------|
A-0-0-0-0-0-0-0-0-0-----0--------|
E-0-0-0-0-0-0-0-0-0-----0--------|

e--------------------------------|
B--------------------------------|
G--------------------------------|
D--------------------------------|
A-0-0-0-0-0-0-0-0-0--------------|
E-0-0-0-0-0-0-0-0-0--------------|

e--------------------------------|
B--------------------------------|
G--------------------------------|
D--------------------------------|
A-0-0-0-0-0-0-0-0-0--0--0--------|
E-0-0-0-0-0-0-0-0-0--0--0--------|

e--------------------------------|
B--------------------------------|
G--------------------------------|
D--------------------------------|
A-0-0-0-0-0-0-0-0-0-----0--------|
E-0-0-0-0-0-0-0-0-0-----0--------|

e--------------------------------|
B--------------------------------|
G--------------------------------|
D--------------------------------|
A-0-0-0-0-0-0-0-0-0--------------|
E-0-0-0-0-0-0-0-0-0--------------|

e--------------------------------|
B--------------------------------|
G--------------------------------|
D--------------------------------|
A-0-0-0-0-0-0-0-0-0~-------------|
E-1-1-1-1-1-1-1-1-1~-------------|

e--------------------------------|
B--------------------------------|
G--------------------------------|
D--------------------------------|
A-0-0-0-0-0-0-0-0-0~--0-0--------|
E-1-1-1-1-1-1-1-1-1~--1-1--------|

e--------------------------------|
B--------------------------------|
G--------------------------------|
D--------------------------------|
A-0-0-0-0-0-0-0-0-0~-------------|
E-1-1-1-1-1-1-1-1-1~-------------|

e--------------------------------|
B--------------------------------|
G--------------------------------|
D--------------------------------|
A-0-0-0-0-0-0-0-0-0~-------------|
E-1-1-1-1-1-1-1-1-1~-------------|

e--------------------------------|
B--------------------------------|
G--------------------------------|
D--------------------------------|
A-0-0-0-0-0-0-0-0-0~--0-0--------|
E-1-1-1-1-1-1-1-1-1~--1-1--------|

e--------------------------------|
B--------------------------------|
G--------------------------------|
D--------------------------------|
A-0-0-0-0-0-0-0-0-0~-------------|
E-1-1-1-1-1-1-1-1-1~-------------|

e--------------------------------|
B--------------------------------|
G--------------------------------|
D--------------------------------|
A-----5-8-----4-7-----3-6-----2-5|
E-5-8-----4-7-----3-6-----2-5----|

e--------------------------------|
B--------------------------------|
G--------------------------------|
D--------------------------------|
A-----5-8-----4-7-3-2-1----------|
E-5-8-----4-7-----3-2-1-3*-------|

e--------------------------------|
B--------------------------------|
G--------------------------------|
D--------------------------------|
A-----5-8-----4-7-----3-6-----2-5|
E-5-8-----4-7-----3-6-----2-5----|

e--------------------------------|
B--------------------------------|
G--------------------------------|
D--------------------------------|
A-----5-8-----4-7-3-2-1-3*-------|
E-5-8-----4-7-----3-2-1----------|

e--------------------------------|
B--------------------------------|
G--------------------------------|
D--------------------------------|
A-----5-8-----4-7-----3-6-----2-5|
E-5-8-----4-7-----3-6-----2-5----|

e--------------------------------|
B--------------------------------|
G--------------------------------|
D--------------------------------|
A-----5-8-----4-7-3-2-1----------|
E-5-8-----4-7-----3-2-1-3*-------|

e-----------------------------------|
B-----------------------------8-11--|
G------------------------7-10-------|
D-----5-8-----4-7----6-9------------|
A-5-8-----4-7----5-8----------------|
E-----------------------------------|

e--------------------------------|
B--------------------------------|
G--------------------------------|
D-----5-8-----4-7----------------|
A-5-8-----4-7-----3-2-1----------|
E-----------------3-2-1-3*-------|

e-----------------------------------|
B-----------------------------8-11--|
G------------------------7-10-------|
D-----5-8-----4-7----6-9------------|
A-5-8-----4-7----5-8----------------|
E-----------------------------------|

e--------------------------------|
B--------------------------------|
G--------------------------------|
D-----5-8-----4-7----------------|
A-5-8-----4-7-----3-2-1----------|
E-----------------3-2-1-3*-------|

e--------------------------------|
B--------------------------------|
G--------------------------------|
D--------------------------------|
A-3-0-0-2-0-0-2-0-0--------------|
E-3-0-0-2-0-0-2-0-0--------------|

e--------------------------------|
B--------------------------------|
G--------------------------------|
D--------------------------------|
A-3-0-0-2-0-0-2-0-0--------------|
E-3-0-0-2-0-0-2-0-0--------------|

e--------------------------------|
B--------------------------------|
G--------------------------------|
D--------------------------------|
A----7t-6------------------------|
E-5t-----------------------------|

e--------------------------------|
B--------------------------------|
G--------------------------------|
D-0~-----------------------------|
A-0~-----------------------------|
E-0~-----------------------------|

e--------------------------------|
B--------------------------------|
G--------------------------------|
D--------------------------------|
A-0-0-0----0-0--0-0-8~--5~-------|
E-0-0-0----0-0--0-0-8~--5~-------|
Harmonized
e--------------------------------|
B--------------------------------|
G--------------------------------|
D--------------------------------|
A-----8---5-------5---4---5---7--|
E-0-0---0---0-0-0---0---0---0----|

e---------------------------------------|
B---------------------------------------|
G---------------------------------------|
D---------------------------------------|
A-----8---10---8---------10----12-----13|
E-8-8---8----8---8-10-10----10-----10---|

e--------------------------------|
B--------------------------------|
G--------------------------------|
D--------------------------------|
A-----8---5-------5---4---5---7--|
E-0-0---0---0-0-0---0---0---0----|

e---------------------------------------|
B---------------------------------------|
G---------------------------------------|
D---------------------------------------|
A-----8---10---8------5t-7t-8t----------|
E-8-8---8----8---8-5t-------------------|
Tremolo-Picked now
e--------------------------------|
B--------------------------------|
G--------------------------------|
D--------------------------------|
A---8t-5t---5t-4t-5t-7t----------|
E-0t------0t---------------------|

e--------------------------------|
B--------------------------------|
G--------------------------------|
D--------------------------------|
A----8t-10t-8t-----10t-12t-13t---|
E-8t-----------10t---------------|

e--------------------------------|
B--------------------------------|
G--------------------------------|
D--------------------------------|
A---8t-5t---5t-4t-5t-7t----------|
E-0t------0t---------------------|

e--------------------------------|
B--------------------------------|
G--------------------------------|
D--------------------------------|
A----8t-10t-8t----5t-7t-8t-------|
E-8t-----------5t----------------|

e--------------------------------|
B--------------------------------|
G--------------------------------|
D--------------------------------|
A---8t-5t---5t-4t-5t-7t----------|
E-0t------0t---------------------|

e--------------------------------|
B--------------------------------|
G--------------------------------|
D--------------------------------|
A----8t-10t-8t-----10t-12t-13t---|
E-8t-----------10t---------------|

e--------------------------------|
B--------------------------------|
G--------------------------------|
D--------------------------------|
A---8t-5t---5t-4t-5t-7t----------|
E-0t------0t---------------------|

e--------------------------------|
B--------------------------------|
G--------------------------------|
D--------------------------------|
A----8t-10t-8t----5t-7t-8t-------|
E-8t-----------5t----------------|

e--------------------------------|
B--------------------------------|
G--------------------------------|
D-0~-----------------------------|
A-0~-----------------------------|
E-0~-----------------------------|

e--------------------------------|
B--------------------------------|
G--------------------------------|
D-0~------------19--17-----------|
A-0~-----------------------------|
E-0~------------17--15-----------|

e--------------------------------|
B--------------------------------|
G--------------------------------|
D-0~-----------------------------|
A-0~--0-0-0--0-0-0--0-0-0--0-0-0-|
E-0~--0-0-0--0-0-0--0-0-0--0-0-0-|

e--------------------------------|
B--------------------------------|
G--------------------------------|
D-0~--------------------1~-------|
A-0~--0-0-0--0-0-0--0-0-1~-------|
E-0~--0-0-0--0-0-0--0-0-1~-------|

e--------------------------------|
B--------------------------------|
G--------------------------------|
D--------------------------------|
A-0-0-3-2-1-3*-------------------|
E-0-0-3-2-1----------------------|
The rest is a cakewalk of a out-breakdown so i felt i didn't exactly need to tab it C:
Tap to rate this tab
# A B C D E F G H I J K L M N O P Q R S T U V W X Y Z