Song name
# A B C D E F G H I J K L M N O P Q R S T U V W X Y Z

Misc Unsigned Bands - Set For Sundown - Mis Perfect tab

Intro/verse

E|-2-0-0-0-00-2-0-0-0-2-0-0-0-00-2-0-0-0| <-|
B|-3-3-3-3-33-3-3-3-3-3-3-3-3-33-3-3-3-3|   |
G|-2-2-2-2-22-2-2-2-2-2-2-2-2-22-2-2-2-2|   |
D|-0-0-0-0-00-0-0-0-0-0-0-0-0-00-0-0-0-0|   |
A|--------------------------------------|   | 
E|--------------------------------------|x2 |                      
                                            | Play this Twice
E|-0-0-0-0-00-0-0-0-0-0-0-0-0-00-0-0-0-0|   |
B|-0-2-2-2-22-0-2-2-2-0-2-2-2-22-0-2-2-2|   |
G|-2-2-2-2-22-2-2-2-2-2-2-2-2-22-2-2-2-2|   |
D|-2-2-2-2-22-2-2-2-2-2-2-2-2-22-2-2-2-2|   |
A|-0-0-0-0-00-0-0-0-0-0-0-0-0-00-0-0-0-0|   |
E|--------------------------------------|x2<| 
   
chorus
G A D A x2

verse 

chorus

bridge

E|----0~----2~|  
B|--3-----3---|  
G|-2-2---2-2--|  
D|0-----0-----|  
A|------------|  
E|------------|x2

|---------0-------------0-------|
|-----0-----0-------0-----0-----|
|-------2-----2-------2-----2---|
|---2-------------2-----------2-|
|-0-------------0---------------|
|-------------------------------|x2

|-------------------------------|
|-----------------------0-------|
|---------0---------0-----0-----|
|-----0-----0-----0---0-----0---|
|---2---2-----2-----------------|
|-3-------------3-------------3-|x2
chorus

chorus down a key (F G C G) x2

Outro|

E|-2-0-0-0-00-2-0-0-0-2-0-0-0-00-2-0-0-0| 
B|-3-3-3-3-33-3-3-3-3-3-3-3-3-33-3-3-3-3| 
G|-2-2-2-2-22-2-2-2-2-2-2-2-2-22-2-2-2-2|
D|-0-0-0-0-00-0-0-0-0-0-0-0-0-00-0-0-0-0|
A|--------------------------------------|   
E|--------------------------------------|                       
                                            
E|-0-0-0-0-00-0-0-0-0-0-0-0-0-00-0-0-0-0|   
B|-0-2-2-2-22-0-2-2-2-0-2-2-2-22-0-2-2-2|   
G|-2-2-2-2-22-2-2-2-2-2-2-2-2-22-2-2-2-2|   
D|-2-2-2-2-22-2-2-2-2-2-2-2-2-22-2-2-2-2|   
A|-0-0-0-0-00-0-0-0-0-0-0-0-0-00-0-0-0-0|   
E|--------------------------------------|
Tap to rate this tab
# A B C D E F G H I J K L M N O P Q R S T U V W X Y Z