Song name
# A B C D E F G H I J K L M N O P Q R S T U V W X Y Z

Misc Unsigned Bands - Sherclop Pones - Pinkies Brew tab

These are just the main parts for the song i figured out on my own by translating the 
sheet music, if you have any contributions E-mail me at Matiasdea@hotmail.com or just post 
in the comments


e|---------------------------||---------------------------|
B|---------------------------||---------------------------|
G|--5------------------------||--5------------------------|
D|-7--75-3---3-5-3-----------||-7--75-3---3-3-------------|
A|---------5-----------------||---------5-----------------|
E|---------------------------||---------------------------|


e|---------------------------||---------------------------|
B|---------------------------||---------------------------|
G|--5------------------------||---5-----------------------|
D|-7--75-3---3-5-3-----------||-77--753-3-----------------|
A|---------5-----------------||---------------------------|
E|---------------------------||---------------------------|



e|---------------------------||--------------------------------|
B|---------------------------||--------------------------------|
G|-10-8---88-10-8------------||--------------------------------|
D|------10--------10-6-------||-10-8-8-6--6-86---6-86---10-8---|
A|---------------------------||----------8------8-----6--------|
E|---------------------------||--------------------------------|
Tap to rate this tab
 
# A B C D E F G H I J K L M N O P Q R S T U V W X Y Z