Song name
# A B C D E F G H I J K L M N O P Q R S T U V W X Y Z

Misc Unsigned Bands - Zerosystem - Disco Song tab

*********************************
ZEROSYSTEM - Disco song
*********************************

-tabbed by "zero83"
-videos to my tabs at http://www.youtube.com/user/blacksystem83


INTRO (clean, Chorus, Delay)
 D------------------|x16
 A------------------|
 F--------777-8-10--|
 C-0--0-------------|
 G------------------|
 C------------------|


REFRAIN (dist) 
 D------------------|x12
 A------------------|
 F------------------|
 C-0---0--0---1-3---|
 G-0---0--0---1-3---|
 C-0---0--0---1-3---|


VERSE (dist) 
 D------------------|x12
 A------------------|
 F------------------|
 C------------------|
 G-0---0--0---6-8---|
 C-0---0--0---------|
   x   x  x


REFRAIN (dist) 
x12


BREAK A (clean, Chorus, Delay)
 D------------------|x6
 A------------------|
 F-----7--8-10---8--|
 C-----0------------|
 G------------------|
 C-0----------------|


BREAK B (dist)
 D------------------|x8
 A------------------|
 F-----7---3--------|
 C-0---7---3---3-2--|
 G-0---5---1---3-2--|
 C-0-----------3-2--|


INTRO (clean, Chorus, Delay) 
x4


OUTRO (dist)
 D---------------x3-|------------------|
 A------------------|------------------|
 F------------------|------------------|
 C-0---0--0---1-3---|-0---0--0---1-----|
 G-0---0--0---1-3---|-0---0--0---1-----|
 C-0---0--0---1-3---|-0---0--0---1-----|
Tap to rate this tab
 
# A B C D E F G H I J K L M N O P Q R S T U V W X Y Z