Song name
# A B C D E F G H I J K L M N O P Q R S T U V W X Y Z

Misc Unsigned Bands - Without Tomorrow - Broken tab

Artist: Without tomorrow
Song: Broken
Tabbed by: shredforever

Intro:
Guitar 1:
e|-----------------------------------------------------------------------|
b|-----------------------------------------------------------------------|
g|---------------------------5-5-5-5-------------------------------------|
d|--7-7-7-7-7-2-2-2--3-3-3-3----------7-7-7-7-7-3-3-3-2-2-2-3-3----7-----|
a|--7-7-7-7-7-2-2-2--3-3-3-3-3-3-3-3--7-7-7-7-7-3-3-3-2-2-2-3-3----7-----|
d|--7-7-7-7-7-2-2-2--3-3-3-3----------7-7-7-7-7-3-3-3-2-2-2-3-3----7-----|

Guitar 2:
e|---------13--12-----------10------------------------|    |---------|
b|--10---------------13-------------13--12----13------| x2 |--10-----|
g|----------------------------------------------------|    |---------|
a|----------------------------------------------------|    |---------|
d|----------------------------------------------------|    |---------|
d|----------------------------------------------------|    |---------|

Verse: 
guitar 2: (with a tremolo effect)
e|---------------------------------------------------------------|
b|---------------------------------------------------------------| x4
g|-----9-----7-----5-----4--5-4------7-----10-----9-----5--4-7-4-|
d|--7-----7-----7-----7---------5--7----7------7-----7-----------|
a|---------------------------------------------------------------|
d|---------------------------------------------------------------|

Chorus:
both guitars:
e|-----------------------------------------------------------------------------|
b|-----------------------------------------------------------------------------|
g|-----------------------------------------------------------------------------|
d|--7-7-7-7-7-7-7-7--2-2-2-2-2-2-2-2--3-3-3-3-3-3-3-3--10-10-10-10-10-10-10-10-|
a|--7-7-7-7-7-7-7-7--2-2-2-2-2-2-2-2--3-3-3-3-3-3-3-3--10-10-10-10-10-10-10-10-|
d|--7-7-7-7-7-7-7-7--2-2-2-2-2-2-2-2--3-3-3-3-3-3-3-3--10-10-10-10-10-10-10-10-|

Verse 2:
guitar 1:
e|-------|
b|-------|
g|-------|
d|--7----|
a|--7----|
D|--7----|

guitar 2: (with a tremolo effect)
e|---------------------------------------------------------------|
b|---------------------------------------------------------------| x2
g|-----9-----7-----5-----4--5-4------7-----10-----9-----5--4-7-4-|
d|--7-----7-----7-----7---------5--7----7------7-----7-----------|
a|---------------------------------------------------------------|
d|---------------------------------------------------------------|

Pre-chorus:
guitar 1:
e|-----------------------------|
b|-----------------------------|
g|----------------------(x28)--|
d|--7-7-7-7---7-7-7-7---7------|
a|--7-7-7-7---7-7-7-7---7------|
d|--7-7-7-7---7-7-7-7---7------|
    * * * *   * * * *   *

guitar 2:
e|---------------------------------------------------------------|
b|---------------------------------------------------------------| x2
g|-----9-----7-----5-----4--5-4------7-----10-----9-----5--4-7-4-|
d|--7-----7-----7-----7---------5--7----7------7-----7-----------|
a|---------------------------------------------------------------|
d|---------------------------------------------------------------|

Chorus:
both guitars:
e|-----------------------------------------------------------------------------|
b|-----------------------------------------------------------------------------|
g|-----------------------------------------------------------------------------|
d|--7-7-7-7-7-7-7-7--2-2-2-2-2-2-2-2--3-3-3-3-3-3-3-3--10-10-10-10-10-10-10-10-|
a|--7-7-7-7-7-7-7-7--2-2-2-2-2-2-2-2--3-3-3-3-3-3-3-3--10-10-10-10-10-10-10-10-|
d|--7-7-7-7-7-7-7-7--2-2-2-2-2-2-2-2--3-3-3-3-3-3-3-3--10-10-10-10-10-10-10-10-|

Bridge:
both guitars:
e|-----------------------------------------------------------|
b|-----------------------------------------------------------|
g|--------------------------------------------9-9-9-10--9----|
d|--3---3---3-3-3-3-5-5-5-5--7-7-7-7-7-7-7-7-----------------|
a|--3---3---3-3-3-3-5-5-5-5--7-7-7-7-7-7-7-7--7-7-7-8---7----|
d|--3---3---3-3-3-3-5-5-5-5--7-7-7-7-7-7-7-7-----------------|

e|-----------------------------------------------------------|
b|-----------------------------------------------------------|
g|--------------------------------------------------5---5----|
d|--3---3---3-3-3-3-5-5-5-5--7-7-7-7-7-7-7-7--2-2-2----------|
a|--3---3---3-3-3-3-5-5-5-5--7-7-7-7-7-7-7-7--2-2-2-3---3----|
d|--3---3---3-3-3-3-5-5-5-5--7-7-7-7-7-7-7-7--2-2-2----------|

e|-------------------------------------------------------------|
b|-------------------------------------------------------------|
g|----------------------------------------------9-9-9-10--9----|
d|--2-3---3---3-3-3-3-5-5-5-5--7-7-7-7-7-7-7-7-----------------|
a|--2-3---3---3-3-3-3-5-5-5-5--7-7-7-7-7-7-7-7--7-7-7-8---7----|
d|--2-3---3---3-3-3-3-5-5-5-5--7-7-7-7-7-7-7-7-----------------|

e|-----------------------------------------------------------|
b|-----------------------------------------------------------|
g|--------------------------------------------------5---5----|
d|--3---3---3-3-3-3-5-5-5-5--7-7-7-7-7-7-7-7--2-2-2----------|
a|--3---3---3-3-3-3-5-5-5-5--7-7-7-7-7-7-7-7--2-2-2-3---3----|
d|--3---3---3-3-3-3-5-5-5-5--7-7-7-7-7-7-7-7--2-2-2----------|

Break:
both guitars:
e|-----------------|
b|-----------------|
g|-----------------|
d|--7----7-7----7--|
a|--7----7-7----7--|
d|--7----7-7----7--|

Final Chorus: 
both guitars:
e|------------------------------------------------------------------------------|
b|------------------------------------------------------------------------------|
g|------------------------------------------------------------------------------|
d|--7-7-7-7-7-2-2-2--3-3-3-3-10-10-10-10--7-7-7-7-7-3-3-3--2-2-2-2-10-10-10-10--|
a|--7-7-7-7-7-2-2-2--3-3-3-3-10-10-10-10--7-7-7-7-7-3-3-3--2-2-2-2-10-10-10-10--|
d|--7-7-7-7-7-2-2-2--3-3-3-3-10-10-10-10--7-7-7-7-7-3-3-3--2-2-2-2-10-10-10-10--|

guitar 1:
e|-----------------------------------------------------------------------------|
b|-----------------------------------------------------------------------------|
g|-----------------------------------------------------------------------------|
d|--7-7-7-7-7-7-7-7--2-2-2-2-2-2-2-2--3-3-3-3-3-3-3-3--10-10-10-10-10-10-10-10-|
a|--7-7-7-7-7-7-7-7--2-2-2-2-2-2-2-2--3-3-3-3-3-3-3-3--10-10-10-10-10-10-10-10-|
d|--7-7-7-7-7-7-7-7--2-2-2-2-2-2-2-2--3-3-3-3-3-3-3-3--10-10-10-10-10-10-10-10-|

e|-------------------------|
b|-------------------------|
g|-------------------------|
d|--2-2--3-3--2-2--3-3-----|
a|--2-2--3-3--2-2--3-3-----|
d|--2-2--3-3--2-2--3-3-----|

guitar 2:
e|---------13--12-----------10----------------------|   
b|--10---------------13-------------13--12----13----|
g|--------------------------------------------------|    
a|--------------------------------------------------|    
d|--------------------------------------------------|    
d|--------------------------------------------------| 
  
e|---------13--12-----------10----------------------------|   
b|--10---------------13-------------13--12b------13-10----|
g|--------------------------------------------------------|    
a|--------------------------------------------------------|    
d|--------------------------------------------------------|    
d|--------------------------------------------------------|   
Tap to rate this tab
 
# A B C D E F G H I J K L M N O P Q R S T U V W X Y Z