Song name
# A B C D E F G H I J K L M N O P Q R S T U V W X Y Z

Misc Unsigned Bands - Tustric - Haunt Me Again tab

Tustric - Haunt Me Again

Well I think this is the first kind of metal/ grunge song i've made.
On the second verse, you sing it fast.

Intro:

----------------------------------------------------|
----------------------------------------------------|
----1-------1-------2-------2-------2-------2-------|
--2---2---2---2---1---1---1---1---2---2---2---2-----|
4-------4-------1-------1-------0-------0-----------|
----------------------------------------------------|
                   Ring out
----------------|--------------------------------------|
----------------|--------------------------------------|
----0-------0---|--------------------------------------|
--2---2---2---2-|-2------------------------------------|
3-------3-------|--------------------------------------|
----------------|--------------------------------------|

----------------------------------------------------|
----------------------------------------------------|
----------------------------------------------------|
----------------------------------------------------|
3----3-6-3----2----2-6-2------x2--------------------|
3----3-6-3----2----2-6-2----------------------------|

Verse: (p.m on all "0")
----------------------------------------------------|
----------------------------------------------------|
----------------------------------------------------|
----------------------------------------------------|
----3-----5---------6-----5-----8b------------------|
0-0-3-0-0-5-0-0-0-0-6-0-0-5-0-0-8b------------------|

Chorus:

----------------------------------------------------|
----------------------------------------------------|
----------------------------------------------------|
----------------------------------------------------|
3-3-3-3-3-3-3-3-3--8-8-8-8--6-6-5-5-----------------|
3-3-3-3-3-3-3-3-3--8-8-8-8--4-4-3-3-----------------|

Lyrics:

Intro:
Death, youíre standing rather near!
Donít you understand the fear
You trigger deep within my soul?
The terror sprung by such a ghoul
Of dark and hideous hue!

Verse:
Now youíre rattling on my door!
Iím sure I threw you out before
Methinks you really need to learn!
So leg it please and neíer rProxy-Connection: keep-alive
Cache-Control: max-age=0

urn
To haunt me Ďgain, now shoo!

Chorus:
Gain a sense of social pride, and
Keep your bearing far and wide Ė
Perform the deed when I am done Ė
Be free and loose to have your fun
When Iím too frail to turn and run,
But now Iíve living to do!

2nd verse:


Death is when my loved ones must depart
Death is a sharp pain in my heart
Death is this feeling of permanent sadness and pain
Death is when my loved ones have gone away
Death is the call to heaven or hell
Death is an eternal mansion or cell
Death is the lesson i need to learn about
Death is a loss, without a doubt
Death is this unhappy feeling i have
Death is pleasant on my behalf
Death is the day i end my life
Death is when i give up the fight
Death is happiness to the world around me
Death started when i gained my life
Death can be helped along with this knife
Death is where i shall go
Death is close, i kno
Death willl come fast
Death is vast
Death is what i see
Death lives inside of me
Death is joy to me
Death has come for me
Death is gonna take me
Death will stop my misery
Death loves my company
Death ends the pain
Death takes me on that train
Death is near
Death is finally here

END
Tap to rate this tab
# A B C D E F G H I J K L M N O P Q R S T U V W X Y Z