Song name
# A B C D E F G H I J K L M N O P Q R S T U V W X Y Z

Misc Unsigned Bands - Lethal Belief - Parasite tab

intro/verse

e|-----------------------------------------------|
B|-----------------------------------------------|
G|-----------------------------------------------|
D|------------5-5-5-5-5-5-5-5-8-8-8-8-7-7-7-7----|
A|---5--6-5---3-3-3-3-3-3-3-3-6-6-6-6-5-5-5-5----|
E|---3--4-3--------------------------------------|
        ^
     (intro)

verse continued

e|--------------------------------------|
B|--------------------------------------|
G|--------------------------------------|
D|---5-5-5-5-5-5-5-5--------------------|
A|---3-3-3-3-3-3-3-3-8-8-8-8-7-7-7-7----|
E|-------------------6-6-6-6-5-5-5-5----|


pre-chorus

e|-------------------------------------|
B|-------------------------------------|
G|-------------------------------------|
D|---5-5-5-5-5-5-5-5-7-7-8-8-8-8-7-7---|
A|---3-3-3-3-3-3-3-3-5-5-6-6-6-6-5-5---|
E|---

pre-chorus continued

e|--------------------------------------|
B|--------------------------------------|
G|--------------------------------------|
D|---5-5-5-5-5-5-5-5--------------------|
A|---3-3-3-3-3-3-3-3-7-7-8-8-8-8-7-7----|
E|-------------------5-5-6-6-6-6-5-5----|

chorus

e|----------------------------------------------------------|
B|----------------------------------------------------------|
G|----------------------------------------------------------|
D|---7-7-7-7-7-7-7-5-5-5-5-5-5-5----------------------------|
A|---5-5-5-5-5-5-5-3-3-3-3-3-3-3-5-5-5-5-5-5-5-5-5-5-5-5----|
E|-------------------------------3-3-3-3-3-3-3-3-3-3-3-3----|

chorus continued

e|----------------------------------------------------------|
B|----------------------------------------------------------|
G|----------------------------------------------------------|
D|---3-3-3-3-3-3-3-5-5-5-5-5-5-5----------------------------|
A|---1-1-1-1-1-1-1-3-3-3-3-3-3-3-5-5-5-5-5-5-5-5-5-5-5-5----|
E|-------------------------------3-3-3-3-3-3-3-3-3-3-3-3----|
Tap to rate this tab
# A B C D E F G H I J K L M N O P Q R S T U V W X Y Z