Song name
# A B C D E F G H I J K L M N O P Q R S T U V W X Y Z

Misc Unsigned Bands - Jackleapp - Scootaloos Wings tab

-----------------------------------------------------------------------------

                   SCOOTALOO'S WINGS - JackleApp

-------------------------------------------------------------------------------
Tabbed by: Killian Dunne
Email:killianlukedunne@hotmail.com
************************************

| /   slide up
| \   slide down
| h   hammer-on
| p   pull-off

************************************
Tuning:Standard (EADGBe)

Intro/Verse
e|---------------------------------------------------------------------------|
B|-------------------------3/2----2----2----2----2---------------------------|
G|---0h2-----2/4----4/2---2------2-2--2-2--2-2--2-2--------------------------|
D|--2------2------5----------------------------------------------------------|
A|----------------------2-------0----0----0----0-----------------------------|
E|0------2------3------------------------------------------------------------|
intro part II
e|---------------------------------------------------------------------------|
B|---4-------3------2--------------------------------------------------------|
G|-5---5---4---4--2---2---1-------1-------1----------------------------------|
D|----------------------2---2---2---2---2---2--------------------------------|
A|3------2------0------------------------------------------------------------|
E|--------------------0--------0------0--------------------------------------|


verse part II
e|---------------------------------------------------------------------------|
B|----3-------5-------3-------7---------8--------8-------8-------------------|
G|--4------5----5---4---4---7---7----9----9---9----9---9---9-----------------|
D|---------------------------------------------------------------------------|
A|2------3--------2-------5-------7---------7--------7-----------------------|
E|---------------------------------------------------------------------------|

e|---------------------------------------------------------------------------|
B|-----12--------10-----8-----7----5----3----2-------------------------------|
G|-------12---11------9-----7----5----4----2---2-----------------------------|
D|---------------------------------------------------------------------------|
A|10-10-----9-------7-----5----3----2----0-----------------------------------|
E|---------------------------------------------------------------------------|

outro: play some of the previous notes and the strum these chords:

Em,Fm,G,Bm,A

Bm,C,Bm,D,Em

Bm,C,Bm,A,G,Fm,E
Tap to rate this tab
# A B C D E F G H I J K L M N O P Q R S T U V W X Y Z