Song name
# A B C D E F G H I J K L M N O P Q R S T U V W X Y Z

Misc Unsigned Bands - Ocasan - Not All Heroes Wear Capes tab

Not All Heroes Wear Capes
Standard Tuning.    x = palm mute string

(relative to capo on 1st fret)

|-----------------------------------------------|
|-----------------------------------------------|
|--5-5-5-5-5-5-5-5-5-5-5-5-5-5-5-5--------------|  Repeat 8 times
|-----------------------------------------------|
|--3-3-3-3-3-3-3-3-3-3-3-3-3-3-3-3--------------|
|-----------------------------------------------|

|--0-------------------------0---|
|--1-------------------------1---|
|--2-------------------------0---|
|--2-------------------------3---|
|--0-------------------------3---|
|----------------------------1---|
   ^

         not all heroes wear capes  (play F# with Thumb)

|-------------------------------------------------------------------|
|-------------------------------------------------------------------|
|--5-5-5-5-5-5-5-5-5-5-5-5-5-5-5-5-5-5-5-5-5-5-5/7-7-7-7-7-7-7-7-7--|
|-------------------------------------------------------------------|
|--3-3-3-3-3-3-3-3-3-3-3-3-3-3-3-3-3-3-3-3-3-3-3/5-5-5-5-5-5-5-5-5--|
|-------------------------------------------------------------------|

|------------------------------------------------------------------------0--|
|------------------------------------------------------------------------1--|
|--7/9-9-9-9-9-9-9-9-9-9-9-9-9-9-9/10-10 10 10 10/12-12-12-12-12-12------0--|
|------------------------------------------------------------------------3--|
|--5/7-7-7-7-7-7-7-7-7-7-7-7-7-7-7/8--8--8--8--8/10--10-10-10-10-10------3--|
|---------------------------------------------------------------------0--1--|

                                            Pre Chorus

|--0-----------------0-------0---------------|-0---0-0--0---0--2-2--2---2--0-0--0---0--2-2--2---2-|
|--1-----------------1-------1-----------1---|-0---1-1--1---1--3-3--3---3--1-1--1---1--3-3--3---3-|
|--0--------0--------0----2--2--2------3-----|-0---0-0--0---0--2-2--2---2--0-0--0---0--2-2--2---2-|
|--2-----0-----2-----3----2----------2-------|-2---3-3--3---3--0-0--0---0--3-3--3---3--0-0--0---0-|
|--3-----------------3----0--------3---------|-2---3-3--3---3--0-0--0---0--3-3--3---3--0-0--0---0-|
|-----------------0--1-----------------------|-0---1-1--1---1--2-2--2---2--1-1--1---1--2-2--2---2-|

|--0---0---0xx3------------------------------------------------------------|
|--1---1---1xx3------------------------------------------------------------|
|--0---0---0xx0----5-5-5-5-5-5-5-5-5-5-5-5-5-5-5-5-5-5-5-5-5-5-5-5-5-5-5-5-|
|--3---3---3xx0------------------------------------------------------------|
|--3---3---3xx2----3-3-3-3-3-3-3-3-3-3-3-3-3-3-3-3-3-3-3-3-3-3-3-3-3-3-3-3-|
|--1---1---1xx3------------------------------------------------------------|
   ^
Chorus (Let the 0--1 motif ring over the chords here)

|--0-0-0----0---0--3-3-3----3---3-----0--------0--------0--------3---0-0-0----0---0--3-3-3----3---3-|
|--1-1-1----1---1--3-3-3----3---3--------1--------1--------1-----3---1-1-1----1---1--3-3-3----3---3-|
|--0-0-0----0---0--0-0-0----0---0--2--------2-----------------0--0---0-0-0----0---0--0-0-0----0---0-|
|--2-2-2----2---2--0-0-0----0---0--2--------2--------3-----------0---2-2-2----2---2--0-0-0----0---0-|
|--3-3-3----3---3--2-2-2----2---2--0--------0--------3-----------2---3-3-3----3---3--2-2-2----2---2-|
|------------------3-3-3----3---3-----------3--------1-----------3-------------------3-3-3----3---3-|

|---------------------0--------------0---------3------------0--0--0-------3----0--------------------|
|-----1--------1---------1-----------1---------3------------1--1--1-------3----1--------------------|
|--2--------2---------------0--------2---2--2--0------------0--0--0-------0----0--------------------|
|--2---------------3-----------3-----2---2--2--0------------3--3--3-------0----2--------------------|
|--0-----0---------3--------------3--0---0--0--2---2--2-----3--3--3-------2----3--------------------|
|--------3---------1---------------------------3---3--3-----1--1--1-------3-------------------------|

VERSE

|--0---------------------------------------------0--|
|--1----------------------------------1--------1----|
|--0-------------------------------0---------3------|
|--3----------------------------2----------2--------|
|--3-------------------------0-----------3----------|
|--1------------------------------------------------|

|--0---0-0--0---0--2-2--2---2---0-0--0---0--2-2--2-------0------------3-3--|
|--0---1-1--1---1--3-3--3---3---1-1--1---1--3-3--3-------1------------3-3--|
|--0---0-0--0---0--2-2--2---2---0-0--0---0--2-2--2-------0------------0-0--|
|--2---3-3--3---3--0-0--0---0---3-3--3---3--0-0--0----2--3------------0-0--|
|--2---3-3--3---3--0-0--0---0---3-3--3---3--0-0--0----2--3------------2-2--|
|--0---1-1--1---1--2-2--2---2-0-1-1--1---1--2-2--2----0--1------------3-3--|
                                                         ^
|-----------------------------------------------------------|
|-----------------------------------------------------------|
|--5-5-5-5-5-5-5-5-5-5-5-5-5-5-5-5-5-5-5-5-5-5-5-5-5-5-5-5--|
|-----------------------------------------------------------|
|--3-3-3-3-3-3-3-3-3-3-3-3-3-3-3-3-3-3-3-3-3-3-3-3-3-3-3-3--|
|-----------------------------------------------------------|

Chorus..... End Into middle

|--2-----1------------|--0-------------------0--------------0------3--------0-------0----------|
|--3-----1------------|--1-------------------1-----0--1-----1---------0--1--0-------1----------|
|--2-----1------------|--0----------------0--0-----------0--0---------------0-------0----------|
|--0-----3------------|--2-----0h2----0------3--------------2---------------3-------3----------|
|--0-----3------------|--3-------------------3--------------3---------------3-------3----------|
|--2-----1------------|----------------------1------------------------------1-------1----------|

MIDDLE WITH SLAP BACK DELAY Muted

|------------------------------------------------------------------------------------------------|
|---------------------------------------------------------------------------------------1-0------|
|----------0-0-------------0-0-------------0-0---------------------------0-0----------------0----|
|--------------2-2-------------2-2-------------2-2--------3-3----------------2-2--------------0--|
|--3--3--3---------3--3--3---------3--3--3---------3--3--3---2-2-3--3--3---------3--3--3---------|
|------------------------------------------------------------------------------------------------|

|------3--------------------|--0--0--0xxxxx---0--0-----0-------------0--0--0-----3--------0----|
|--1---3--------------------|--1--1--1xxxxx---1--1-----1-------------1--1--1-----3--------1----|
|--2---0--slide up and down-|--0--0--0xxxxx---0--0-----0------Repeat-0--0--0-----0--------4----|
|--2---0---Bottom 3 strings-|--3--3--3xxxxx---3--3-----3-------X3----3--3--3-----0--------2----|
|--0---2--------------------|--3--3--3xxxxx---3--3-----3-------------3--3--3-----2--------0----|
|------3--------------------|--1--1--1xxxxx0--1--1--0--1----3--------1--1--1-----3-------------|
   ^   ^                                                             ^  ^  ^
Tap to rate this tab
# A B C D E F G H I J K L M N O P Q R S T U V W X Y Z