Song name
# A B C D E F G H I J K L M N O P Q R S T U V W X Y Z

Misc Unsigned Bands - Distance - No Sunshine tab

-------------------------------------------------------------------------------
                             No Sunshine - Distance
-------------------------------------------------------------------------------
Tabbed by: Ondrej
Email: reznisek@gmail.com

Tuning:

e|---------------------------------------------------------------------------|
B|---------------------------------------------------------------------------|
G|---------------------------------------------------------------------------|
D|---------------------------------------------------------------------------|
A|----13---------13---------13---------13------------------------------------|
E|-13----12---13----12---13----12---13----12---15----------------------------|

e|---------------------------------------------------------------------------|
B|---------------------------------------------------------------------------|
G|---------------------------------------------------------------------------|
D|---------------------------------------------------------------------------|
A|-10------------10------------10------------10------------------------------|
E|----10-12-10------10-12-10------10-13-10------10-13-10---------------------|

e|---------------------------------------------------------------------------|
B|-13-12-12---13-12-12---13-12-12---13-12-12---13-12-12----------------------|
G|---------------------------------------------------------------------------|
D|---------------------------------------------------------------------------|
A|---------------------------------------------------------------------------|
E|---------------------------------------------------------------------------|



************************************

| /   slide up
| \   slide down
| h   hammer-on
| p   pull-off
| ~   vibrato
| +   harmonic
| x   Mute note
| b   Bend
| pb  Pre-bend
| br  Bend release
| pbr Pre-bend release
| brb Bend release bend

************************************
Tap to rate this tab
# A B C D E F G H I J K L M N O P Q R S T U V W X Y Z